Within Temptation Tabs

Frozen

2 versions

TAB

            (piano intro - at the fifth time, play the following chords:

C#m    A      A    B


Play this tab during the first verse

E|-------------------------------------------------------|
A|-0--------2---4-----------0---------2----4-------------|
D|----2------------1-2---------2-------------6-----------|
G|-------4--------------1----------4---------------8-----|
B|-------------------------------------------------------|
e|----------------------------------------------0--------|


E|-0---------------4-------------------------------------------|
A|----2------2--------6--7--4----0-----------2-----------------|
D|-------4--------------------------2------------4-----4-------|
G|-------------------------------------2------------4----------|
B|----------------------------------------0---------------2----|
e|-------------------------------------------------------------|


Verse 1

I can't feel my senses
I just feel the cold
All colours seem to fade away
I can't reach my soul


Verse 2

C#m   A           B
   I would stop running

C#m       A         B
   If I knew there was a chance

      C#m        A       B           G#m
   It tears me apart to sacrifice it all

            A             B
   But I'm forced to let go


             F#m  D
Tell me I'm frozen

                E
But what can I do?

               F#m  D
Can't tell the reasons

              E
I did it for you


                     C#m
When lies turn into truth

                 F#m
I sacrifice for you

                   D  E
You say that I am frozen

    C#m         F#m
But what can I do?

I can feel your sorrow - piano part


C#m     A    B

       C#m
(I sacrifice)

     A        B
You won't forgive me

 C#m
(...)

        A          B
But I know you'll be alright


(...)

    C#m       A         B              G#m
It tears me apart that you will never know

       A           B
But I have to let go

             F#m  D
Tell me I'm frozen

                E
But what can I do?

               F#m  D
Can't tell the reasons

              E
I did it for you


                     C#m
When lies turn into truth

                 F#m
I sacrifice for you

                   D  E
You say that I am frozen

    C#m         D
But what can I do?


                      Bm
Everything will slip away

                        F#m
Shattered pieces will remain

                D        E          D
When memories fade into emptiness

                         E
Only time will tell its tale

                      C#m
If it all has been in vain


The following two verses are played like this...
(At "cold", play C#m)

E|--------0------2------------------0--------|
A|-5---5------------4--------5---5-----------|
D|---7------6----------6-------7-------6-----|
G|------------------------2------------------|
B|-------------------------------------------|
e|-------------------------------------------|


I can't feel my senses

                C#m
I just feel the cold


F#m D  E
  Frozen


  But what can I do?

F#m D  E
  Frozen


             F#m  D
Tell me I'm frozen

                E
But what can I do?

               F#m  D
Can't tell the reasons

              E
I did it for you


                     C#m
When lies turn into truth

                 F#m
I sacrifice for you

                   D  E       C#m
You say that I am frozen


F#m
  Frozen

By Francisco Almeida    

Added On December 16th, 2013

SHARE

Comments

blog comments powered by Disqus

VERSIONS

ADVERTISEMENT