Wolfmother Tabs

Dimension

7 versions

TAB

            Dimension Tab by Wolfmother


-----------------------------------------------------------------------------
			     Dimension - Wolfmother
-----------------------------------------------------------------------------
Tabbed by: Lukey D (is sexy)
Email: Dwyer6@hotmail.com

Tuning: standard

Intro
e|-------------------------------------------------------------------------|
B|-------------------------------------------------------------------------|
G|-------------------------------------------------------------------------|
D|--------------------5----------------------------------------------------|
A|-7-7-7-7-7-7--0h5h7------------------------------------------------------|
E|-0-0-0-0-0-0-------------------------------------------------------------|

verse
e|-------------------------------------------------------------------------|
B|-------------------------------------------------------------------------|
G|-------------------------------------------------------------------------|
D|-------------------7---(5-3-------)----------9----7----------------------|
A|-7--------7--------7---(----5-4-3-)-7--------9----7----------------------|
E|-0--------0--------5----------------0--------7----5----------------------|
(the brackets are actually played on bass)

"into another dimension"
e|-------------------------------------------------------------------------|
B|-------------------------------------------------------------------------|
G|----------------5--5-7-5-------------------------------------------------|
D|------3-4-5-6-7----------7-6-5-4-3---------------------------------------|
A|--3-5------------------------------5-------------------------------------|
E|-------------------------------------------------------------------------|
the riff starts on fret 10 when you hear the change in the song

"purple hazes in the sky"
e|-------------------------------------------------------------------------|
B|-------------------------------------------------------------------------|
G|-------------------------------------------------------------------------|
D|-----------8--7----------------------------------------------------------|
A|--7--------8--7--------5--7----------------------------------------------|
E|--0--------6--5--------0--0----------------------------------------------|

End on the intro

| /  slide up
| \  slide down
| h  hammer-on
| p  pull-off
| ~  vibrato
| +  harmonic
| x  Mute note
=============================================================================    

Added On December 16th, 2013

SHARE

Comments

blog comments powered by Disqus