Wolfmother Tabs

Love Train

5 versions

TAB

            Love Train Tab by Wolfmother


Intro:
E|-----------------------------------------------------------------------------|
B|-----------------------------------------------------------------------------|
G|-----------------------------------------------------------------------------|
D|------10---10----------------------------------------------------------------|
A|------10---10--------10---10-----8-------------------------------------------|
E|-------8----8---------------------------------10---8-----10b----8------------|       x4


Verse1

E|-----------------------------------------------------------------------------------|
B|-----------------------------------------------------------------------------------|
G|-----------------------------------------------------------------------------------|
D|------10---10--------------10--------------------------------------------------10--|
A|------10---10—[rest]-----10---10---10----8--------------------------------10-------|
E|-------8----8-----------------8---------------------10---8-----10b----8-------8----|   
   x4


Chorus

E|--------------------------------------------------------------|
B|--------------------------------------------------------------|
G|--------------------------------------------------------------|
D|-------10-------------------12--------------10----------------|
A|-------10----~ring~-------12--------------10------------------|
E|--------8--------------------10---------------8---------------|

E|--------------------------------------------------------------------------|
B|--------------------------------------------------------------------------|
G|--------------------------------------------------------------------------|
D|------10---10-------------------------------------------------------------|
A|------10---10--------10---10-----8----------------------------------------|
E|-------8----8---------------------------------10---8-----10b----8---------|    x2

Verse2

E|-----------------------------------------------------------------------------------|
B|-----------------------------------------------------------------------------------|
G|-----------------------------------------------------------------------------------|
D|------10---10--------------10--------------------------------------------------10--|
A|------10---10—[rest]-----10---10---10----8--------------------------------10-------|
E|-------8----8-----------------8---------------------10---8-----10b----8-------8----|   
x4

Chorus

E|--------------------------------------------------------------|
B|--------------------------------------------------------------|
G|--------------------------------------------------------------|
D|-------10-------------------12--------------10----------------|
A|-------10----~ring~-------12--------------10------------------|
E|--------8--------------------10---------------8---------------|

E|--------------------------------------------------------------------------|
B|--------------------------------------------------------------------------|
G|--------------------------------------------------------------------------|
D|------10---10-------------------------------------------------------------|
A|------10---10--------10---10-----8----------------------------------------|
E|-------8----8---------------------------------10---8-----10b----8---------|    x2

Solo 1:
I couldn’t exactly figure out the guitar solo yet. But if you want just mess around.
in the key of Cmaj.
At the end of the solo, there is a keyboard in the background doing some crazy stuff. I
a way to do this on guitar that sounds pretty cool. Turn your guitar to 10. take out the
jack and randomly touch it to your bridge. All of this being controlled by your wah wah 
if ya got one.

Chorus

E|--------------------------------------------------------------|
B|--------------------------------------------------------------|
G|--------------------------------------------------------------|
D|-------10-------------------12--------------10----------------|
A|-------10----~ring~-------12--------------10------------------|
E|--------8--------------------10---------------8---------------|

E|--------------------------------------------------------------------------|
B|--------------------------------------------------------------------------|
G|--------------------------------------------------------------------------|
D|------10---10-------------------------------------------------------------|
A|------10---10--------10---10-----8----------------------------------------|
E|-------8----8---------------------------------10---8-----10b----8---------|    x2


Outro:

E|-------------------|
B|-------------------|
G|-------------------|
D|------10-----------|
A|------10-----------|
E|-------8-----------|    x repeat as he sings “love”

*Goes into a solo again


End on
E|-------------------|
B|-------------------|
G|-------------------|
D|------10-----------|
A|------10-----------|
E|-------8-----------|


*Any questions or concerns or comments, my email is razadera@comcast.net.    

Added On December 16th, 2013

SHARE

Comments

blog comments powered by Disqus

VERSIONS

ADVERTISEMENT