Wolfmother Tabs

Minds Eye

5 versions

TAB

            Minds Eye Tab by Wolfmother


----------------------
WOLFMOTHER - MINDS EYE
----------------------

Ok this is the new kick ass song that i figured out while watching rage last night...i
dont have the song to listen to as the album is not out so i dont know how long to play
each part or the order of the song..

Intro
|----12----12----12----12----12----12----12----12-|
|-11----11----11----11----12----12----12----12----|
|-------------------------------------------------|
|-------------------------------------------------|
|-------------------------------------------------|
|-------------------------------------------------|

|----12----12----12----12----12----12----12----12-|
|-10----10----10----10----10----10----10----10----|
|-------------------------------------------------|
|-------------------------------------------------|
|-------------------------------------------------|
|-------------------------------------------------|

Verse:
  Amin        Gmaj       Fmaj
|-5-----------3----------1------------------------|
|-5-----------3----------1------------------------|
|-5-----------4----------2------------------------|
|-7-----------5----------3------------------------|
|-7-----------5----------3------------------------|
|-5-----------3----------1------------------------|

Other Verse Part:
|---------------------------|
|---------------------------|
|---------------------------|
|-3--5--7--9--10-12--12--17-|
|-3--5--7--9--10-12--12--17-|
|-1--3--5--7--8--10--12--15-|

Chorus:
  Amaj    Dmaj Cmaj     Dmaj
|--------------------------|
|--------------------------|
|-6-------11---9--------11-|
|-7-------12---10-------12-|
|-7-------12---10-------12-|
|-5-------10---8--------10-|

Im pretty sure thats all the guitar parts...

Keyboard solo: just major triad chords of the chorus...
E C# A E C# A E C# A E C# A
A F# D A F# D
G E C G E C G E C G E C 
A F# D A F# D

ie:
|----------------------------------------------------|
|-5--5--5--5----10--10----8---8---8---8-----10--10---|
|--6--6--6--6----11--11----9---9---9---9-----11--11--|
|---7--7--7--7----12--12----10--10--10--10----12--12-|
|----------------------------------------------------|
|----------------------------------------------------|    

Added On December 16th, 2013

SHARE

Comments

blog comments powered by Disqus

VERSIONS

ADVERTISEMENT