Wolfmother Tabs

Where Eagles Have Been

3 versions

TAB

            Where Eagles Have Been Tab by Wolfmother


----------------------------------------------------------------------------
	              WHERE EAGLES HAVE BEEN - Wolfmother
----------------------------------------------------------------------------
Tabbed by: AJ Thiessen 
Email: RDS_07@hotmail.com
Album - Wolfmother (Self Titled)


I couldn't find this tab anywhere so I decided to do it myself by ear. 
It's my first time tabbing, so there may be mistakes. I saw the band 
live and watched the guitar playing closely, thought this tab is only 
done by ear. The clean electric could also be acoustic with a lead 
distorted electric for the chorus. I havent tabbed the solo yet,and 
if anyone has please submit it. Goodluck! Wolfmother Rocks! 

Standard Tuning: EADGBe

p = pulloff
h = hammeron
v = Down strum
^ = Up strum


Intro (Clean Electric)

   D                          Dm
e|--2-----------2--3p2-0--2----1-----------1--1--1p0--------|
B|--------3-----------------3--------3---------------3------|
G|-----2-----2--------------------2-----2---------------2---|
D|--0--------------0---0-------0--------------0--0----------| 2x
A|----------------------------------------------------------|
E|----------------------------------------------------------|

Verse
  
   D                          Dm
|--2-----------2--3p2-0--2----1-----------1--1--1p0--------|
|--------3-----------------3--------3---------------3------|
|-----2-----2--------------------2-----2---------------2---|
|--0--------------0---0-------0--------------0--0----------| 3x
|----------------------------------------------------------|
|----------------------------------------------------------|

   Well we always seem to worry
   Life's becoming such a flurry
   Can't you see that there's lights in the dark

   G              G              C              A  
|--3-----------3--3-----------3--0-----------0------------------|
|--------3--------------3--------------1--------2-----------2---|
|-----------------------------------------------------2---------|
|--------------------------------------------------2-----2------|
|-----------------------------------2-----2-----0---------------| 
|-----2-----2--------2-----2-----3------------------------------|
|--3--------------3---------------------------------------------|
   Nothing's      Quite what it  Seems in the   City of

   D                          Dm
|--2-----------2--3p2-0--2----1-----------1--1--1p0--------|
|--------3-----------------3--------3---------------3------|
|-----2-----2--------------------2-----2---------------2---|
|--0--------------0---0-------0--------------0--0----------| 
|----------------------------------------------------------|
|----------------------------------------------------------|
Dreams

   D                          Dm
|--2-----------2--3p2-0--2----1-----------1--1--1p0--------|
|--------3-----------------3--------3---------------3------|
|-----2-----2--------------------2-----2---------------2---|
|--0--------------0---0-------0--------------0--0----------| 3x
|----------------------------------------------------------|
|----------------------------------------------------------|

   Rainbows tinted with gold, 
   All the stories we've been told, 
   Still her love is yours to behold

   G              G              C              A  
|--3-----------3--3-----------3--0-----------0------------------|
|--------3--------------3--------------1--------2-----------2---|
|-----------------------------------------------------2---------|
|--------------------------------------------------2-----2------|
|-----------------------------------2-----2-----0---------------| 
|-----2-----2--------2-----2-----3------------------------------|
|--3--------------3---------------------------------------------|
   Nothing's      Quite what it  Seems in the   City of

   D                          
|--2-----------2--3p2-0--2-----5-----------5--7-----8p7--------|
|--------3------------------3--------4------------------8------|
|-----2-----2---------------------5-----5--------7---------7---|
|--0--------------0---0--------0--------------0----------------| 
|--------------------------------------------------------------|
|--------------------------------------------------------------|
   Dreams

|--2-----------2--3p2-0--2-----5-----------5--7-----8p7--------|
|--------3------------------3--------4------------------8------|
|-----2-----2---------------------5-----5--------7---------7---|
|--0--------------0---0--------0--------------0----------------| 
|--------------------------------------------------------------|
|--------------------------------------------------------------|


Chorus (Distorted Electric)
|-----------------------------------------------------------|
|----------------------------10------------------------12---|
|--11------------------------10------------------------12---|
|--12------------------------10------------------------12---|
|--12------------------------8-------------------------10---|
|--10------------------------8-------------------------10---|
   Oh

   v  ^  v
|-----------------------------------------------------------|
|----------------------------10------------------------12---|
|--11-11-11------------------10------------------------12---|
|--12-12-12------------------10------------------------12---| 4x
|--12-12-12------------------8-------------------------10---|
|--10-10-10------------------8-------------------------10---|
   You say it's not the real world, 
   Though it seems so real to me, 
   And I know that we're never turning back, 
   Can you see what I see, 

Bridge (Distorted Electric)
|------------------------------------------------------------------------|
|------------------------------------------------------------------------|
|--11---------------------9----------------------4---------------------4-|
|--12---------------------10---------------------7---------------------5-|x2
|--12---------------------10---------------------7---------------------5-|
|--10---------------------8----------------------5---------------------3-|
   I     had       a      vision,               Of      festive    day's,   
   She's    like    an    eagle,                In   the   misted   haze, 

Fill (Clean Electric [actually bass])
|--------------------------------|
|--------------------------------|
|--------------------------------|
|---------------3----------------| 4x
|--5--5--0h3h5-----5p3p0---------|
|--------------------------------|

Verse 2
  
   D                          Dm
|--2-----------2--3p2-0--2----1-----------1--1--1p0--------|
|--------3-----------------3--------3---------------3------|
|-----2-----2--------------------2-----2---------------2---|
|--0--------------0---0-------0--------------0--0----------| 3x
|----------------------------------------------------------|
|----------------------------------------------------------|
  Sit  and  wonder  at  the   sky,  
  Watch  the  river  flowing  by, 
  Now it ends and we're here at the start,

   G              G              C              A  
|--3-----------3--3-----------3--0-----------0------------------|
|--------3--------------3--------------1--------2-----------2---|
|-----------------------------------------------------2---------|
|--------------------------------------------------2-----2------|
|-----------------------------------2-----2-----0---------------| 
|-----2-----2--------2-----2-----3------------------------------|
|--3--------------3---------------------------------------------|
   Nothing's      Quite what it  Seems in the   City of

Chorus (Distorted Electric)
|-----------------------------------------------------------|
|----------------------------10------------------------12---|
|--11------------------------10------------------------12---|
|--12------------------------10------------------------12---|
|--12------------------------8-------------------------10---|
|--10------------------------8-------------------------10---|
   Dreams

   v  ^  v
|-----------------------------------------------------------|
|----------------------------10------------------------12---|
|--11-11-11------------------10------------------------12---|
|--12-12-12------------------10------------------------12---| x4
|--12-12-12------------------8-------------------------10---|
|--10-10-10------------------8-------------------------10---|
   You say it's not the real world, 
   Though it seems so real to me, 
   And I know that we're never turning back, 
   Can you see what I see, 

|------------------------------------------------------------------------|
|------------------------------------------------------------------------|
|--11---------------------9----------------------4---------------------4-|
|--12---------------------10---------------------7---------------------5-|x2
|--12---------------------10---------------------7---------------------5-|
|--10---------------------8----------------------5---------------------3-|
   I     had       a      vision,               Of      festive    day's,   
   She's    like    an    eagle,                In   the   misted   haze, 

  (same as above with strumming)
|------------------------------------------------------------------------|
|------------------------------------------------------------------------|
|--11---------------------9----------------------4---------------------4-|
|--12---------------------10---------------------7---------------------5-|x2
|--12---------------------10---------------------7---------------------5-|
|--10---------------------8----------------------5---------------------3-|
   Oh  break  my chains  girl,                  Show   me  to   the  land, 
   Where people  live   together,               Try     to      understand


Keyboard solo (no guitar)



Guitar solo (rhythm)

|------------------------------------------------------------------------|
|-----------------10--------------12-------------------------------------|
|--11-------------10--------------12--------------11--9---11--9---11--9--|
|--12-------------10--------------12--------------12--10--12--10--12--10-|3x
|--12-------------8---------------10--------------12--10--12--10--12--10-|
|--10-------------8---------------10--------------10--8---10--8---10--8--|

|--------------------------------------------|-----------------------------|
|--------------------10----------------------|-----------------------------|
|--11----------------10----------------------|--11--11--11--11--11--9------|
|--12----------------10----------------------|--12--12--12--12--12--10--2x-|
|--12----------------8-----------------------|--12--12--12--12--12--10-----|
|--10----------------8-----------------------|--10--10--10--10--10--8------|

|--------------------------------------------|-----------------------------|
|--------------------10----------------------|-----------------------------|
|--11----------------10----------------------|--11--11--11--11--11--9------|
|--12----------------10----------------------|--12--12--12--12--12--10--4x-|
|--12----------------8-----------------------|--12--12--12--12--12--10-----|
|--10----------------8-----------------------|--10--10--10--10--10--8------|


Fill (Clean Electric [actually bass])
|--------------------------------|
|--------------------------------|
|--------------------------------|
|---------------3----------------| x4
|--5--5--0h3h5-----5p3p0---------|
|--------------------------------|

Outro

   D                          Dm
|--2-----------2--3p2-0--2----1-----------1--1--1p0--------|
|--------3-----------------3--------3---------------3------|
|-----2-----2--------------------2-----2---------------2---|
|--0--------------0---0-------0--------------0--0----------| 2x
|----------------------------------------------------------|
|----------------------------------------------------------|

   G              G              C              A              D
|--3-----------3--3-----------3--0-----------0-----------------2--|
|--------3--------------3--------------1--------2-----------2-----|
|-----------------------------------------------------2-----------|
|--------------------------------------------------2-----2-----0--|
|-----------------------------------2-----2-----0-----------------| 
|-----2-----2--------2-----2-----3--------------------------------|
|--3--------------3-----------------------------------------------|



Enjoy

| /  slide up
| \  slide down
| h  hammer-on
| p  pull-off
| ~  vibrato
| +  harmonic
| x  Mute note
===============================================================================    

Added On December 16th, 2013

SHARE

Comments

blog comments powered by Disqus

VERSIONS

ADVERTISEMENT