Wolfmother Tabs

Woman

10 versions

TAB

            Woman Tab by Wolfmother


this is in Drop D:

part 1:
e|-----------------------|--------------------------------|
B|-----------------------|--------------------------------|
G|--9-9-9-9-9-9-------0--|--9-9-9-9-9-9--------0--9----7--|
D|--9-9-9-9-9-9----------|--9-9-9-9-9-9-----------9----7--|4X's
A|--7-7-7-7-7-7----------|--7-7-7-7-7-7-----------7----5--|
D|--------------0h7h9----|---------------0h7h9------------|
      |  2X's  |

part 2:
e|--------------------------------------------------|
B|--------------------------------------------------|
G|--------------------------------------------------|
D|--------------------------------------------------|
A|--7----10----7----10----7----10~~~~~~-------------|
D|--9----12----9----12----9----12~~~~~~/14\---------| 
                                slight vibrato   

play part 1:

play part 2:

e|--------------------------------------------------|
B|--------------------------------------------------|
G|--------------------------------------------------|
D|--------------------------------------------------|4X's
A|--9p7p0-7p5p0----------9p7p0-7p5p0----------------|
D|--------------9p7p0-5--------------9p7p0-7--------| 

e|--------------------------------------------------|
B|--------------------------------------------------|
G|--------------------------------------------------|
D|--------------------------------------------------|15X's
A|--------5-------5-------5-------7-----------------|
D|--0h7h9---0h7h9---0h7h9---0h7h9-------------------|
    good exercise for ya!

e|--------------------------------------------------|
B|--------------------------------------------------|
G|--------------------------------------------------|
D|--------------------------------------------------|
A|--9p7p0-7p5p0----------9p7p0-7p5p0-------5-5---7--|
D|--------------9p7p0-5--------------9p7p0-0-0---9--|

play part 1:

play part 2:

e|--------------------------------------------------|
B|--------------------------------------------------|
G|--------------------------------------------------|
D|--------------------------------------------------|
A|--9p7p0-7p5p0----------9p7p0-7p5p0----------------|
D|--------------9p7p0-5--------------9p7p0-7--------| 

i tabbed this song listening to it on my computer playing
and acoustic (Marshall half stack is too loud for my parents lol)
i'll probably be working on some more wolfmother songs it's my second one 
i tabbed today so let me know how it turned out please rate! rock on!
~phil    

Added On December 16th, 2013

SHARE

Comments

blog comments powered by Disqus