Women Tabs

Locust Valley

1 versions

TAB

            The main riff:

|------------15-----------15-----------15-----------15-----|
|----------------------------------------------------------|
|----12------------12-----------12-----------12------------|
|--------14-----------14-----------14------------14--------|
|-12-----------12------------12-----------12---------------|
|----------------------------------------------------------|

|-12-------------------------------------------------------|
|-------12--------12---------12---------12-----------------|
|----------12--------12---------12--------12---------------|
|----14---------14---------14--------14--------------------|
|-------------12---------12--------12----------------------|
|----------------------------------------------------------|

|-----------------------------------------------------------|
|-----------------------------------------------------------|
|---------17---------17--------17--------17-----------------|
|-15---14----15---14---15---14---15---14--------------------|
|-----------------------------------------------------------|
|----15---------15--------15--------15----------------------|

|-----------------------------------------------------------|
|-----------------------------------------------------------|
|---------14----------14--------14--------14----------------|
|-14---12----14----12---14---12---14---12-------------------|
|-----------------------------------------------------------|
|----13---------13---------13--------13---------------------|

|-----------------------------------------------------------|
|-----------------------------------------------------------|
|---------10---------10--------10---------10----------------|
|-10----9----10----9---10----9----10----9-------------------|
|-----------------------------------------------------------|
|----10---------10--------10---------10---------------------|

|-----------------------------------------------------------|
|-----------------------------------------------------------|
|-------10--------10--------10--------10--------------------|
|-9---7-----9---7----9---7------9---7-----------------------|
|-----------------------------------------------------------|
|---8---------8--------8----------8-------------------------|

Chorus alternates between D and A, not sure how they play them. There's no footage
of them playing it live so..    

Added On December 16th, 2013

SHARE

Comments

blog comments powered by Disqus

ADVERTISEMENT