Wye Oak Tabs

Please Concrete

1 versions

TAB

            Song: Please Concrete
Band: Wye Oak
Album: If Children
Tabbed by: Soldier Poet (P. Kr.)

Fun song to play, but not too easy since you have to keep the bass note going 
while playing the picking part over it. Listen to the song for the timing.

Intro:
e|--------1---------------|
B|----3-----3---3---------|
G|----3--3-----3--0--02-0-|
D|------------------------| x4
A|---1--1--1--1--1--1--1--|
E|------------------------|

Verses:
e|--------1---------------|
B|----3-----3---3---------|
G|----3--3-----3--0--02-0-|
D|------------------------| x4
A|-0^1--1--1--1--1--1--1--|
E|------------------------|
(the hammer-on is played only sometimes)

e|--------1---------------|
B|----3-----3---3---------|
G|----3--3-----3--0--02-0-|
D|---1--1--1--1--1--1--1--|
A|------------------------|
E|------------------------|

e|--------1-----------1------|
B|----3-----3-(3)-3-----3-(3)|
G|----3--3----(3)-3--3----(3)|
D|---------------------------|
A|---3--3--3-(3)-------------|
E|---------------1--1--1-(1)-|

She doesn`t play the same notes every time, so bring in your own variations as you wish.

Bridge:
e|--------------------------------|
B|--------------------------------|
G|-3-----------------------8------|
D|-3-----------------------8------|
A|-1-----------------------6------|
E|--------------------------------|

Strum quickly and make lots of noise. :)

Ending:
e|--------1---------------|
B|----3-----3---3---------|
G|----3--3-----3--0--02-0-|
D|------------------------|
A|---1--1--1--1--1--1--1--|
E|------------------------|

e|-------1---------------------------------|
B|---3-----3--------4---4-4---4-4---4-4---4|
G|---3--3-----------3--3--3--3--3--3--3--3-|
D|-----------------------------------------|
A|--3--3--3--3-----------------------------|
E|-----------------1--1--1--1--1--1--1--1--|    

Added On December 16th, 2013

SHARE

Comments

blog comments powered by Disqus

ADVERTISEMENT