Xandria Tabs

Shes Nirvana

1 versions

TAB

            ---------------------------------------------------------------------------
Song: She's Nirvana
Band: Xandria
Album: Kill the Sun
Tabbed by: TrollFaceJesus
E-mail: trollfacejesus@gmail.com


Hey everyone, this is my tab for this song, and I think everything looks
pretty good. All of the rhythm parts in the song are here, and the only
thing I didn't tab out was the solo. Hopefully everything here is accurate,
and that you guys find this tab to be helpful! If you have any questions,
corrections, or comments, please feel free to post them here, or to send
me an email! :D


Tuning: D


Intro
|----------|
|----------|
|----------| x1
|-----14\--|
|-----14\--|
|--0--12\--|


Riff 1
|------------------------------------------------|
|------------------------------------------------|
|--------------------------------7---------------| x6
|--------------------------------7----10----9/7--|
|------------55555555--77777777--5-5--10----9/7--|
|--00000000---------------------------8--8--7/5--|
   ········  ········  ········    ·     ·

Riff 2a
|--------------------------------------------|
|--------------------------------------------|
|--------------------------------------------| x1
|--2-----------------------------------------|
|--2---7-6-6br-------------------------------|
|--0-------------8-7--7h8b--5-4--4h5b--0-7+--|


Riff 2b
|-------------------------------------------|
|-------------------------------------------|
|-------------------------------------------| x1
|--2----------------------------------------|
|--2---7-6-6br------------------------------|
|--0-------------8-7--7h8b--5-4--7br--7br---|


Riff 2a x 1


Riff 2c
|------------------------------------|
|------------------------------------|
|------------------------------------| x1
|--2---------------------------------|
|--2---7-6-6br-----------------------|
|--0-------------8-7--7h8b---5-4-5v--|


Riff 1 x 4

Riff 2a x 1

Riff 2b x 1

Riff 2a x 1

Riff 2c x 1

Guitar Solo


Riff 3 (Rhythm)
|--------------------------------------------------|
|--------------------------------------------------|
|-----------------------------7--7--7--------------| x1
|-----------------------------7--7--7--9---7---5---|
|--33333330-22222220-33333330-55555555-9---7---5---|
|--------------------------------------777-555-33--|
   ········ ········ ········  ·· ·· ·  ··  ··  ·

Riff 3 (Lead)
|---------------------------------------|
|---------------------------------------|
|--5---4-2-4---2/4h5---4-5-7---4--2-----| x1
|------------------------------------5--|
|---------------------------------------|
|---------------------------------------|


Riff 2a x 1

Riff 2b x 1

Riff 2a x 1

Riff 2c x 1


And that's pretty much it! :D


************************************

| /   slide up
| \   slide down
| h   hammer-on
| p   pull-off
| v   vibrato
| +   harmonic
| ·   Mute note
| b   Bend
| pb  Pre-bend
| br  Bend release
| pbr Pre-bend release
| brb Bend release bend

************************************    

Added On December 16th, 2013

SHARE

Comments

blog comments powered by Disqus

ADVERTISEMENT