Xink Tabs

Sorry

2 versions

TAB

            Sorry Tab by Xink


My first tab.. hope you enjoy it.




E|--7-5--|------|------|-3?-3-3-3-7--5--|
B|-------|-7-5?-|-5-3--|----------------|
G|-------|------|------|----------------|
D|-------|------|------|----------------|
A|-------|------|------|----------------|
E|-------|------|------|----------------|


E|--7-5--|------|------|-3?-3-3-3-7--5--|
B|-------|-7-5?-|-5-3--|----------------|
G|-------|------|------|----------------|
D|-------|------|------|----------------|
A|-------|------|------|----------------|
E|-------|------|------|----------------|

E|------------------|-----------------|
B|------------------|-----------------|
G|------------------|-----------------|
D|--7-7-7-7-7-7-7-7-|-----------------|
A|--5-5-5-5-5-5-5-5-|-9-9-9-9-9-9-9-9-|
E|------------------|-7-7-7-7-7-7-7-7?|

E|------------------|------------------|
B|------------------|------------------|
G|------------------|------------------|
D|------------------|------------------|
A|--7-7-7-7-7-7-7-7-|-5-5-5-5-5-5-5-5--|
E|--5-5-5-5-5-5-5-5-|-3-3-3-3-3-3-3-3--|

E|------------------|-----------------|
B|------------------|-----------------|
G|------------------|-----------------|
D|--7-7-7-7-7-7-7-7-|-----------------|
A|--5-5-5-5-5-5-5-5-|-9-9-9-9-9-9-9-9-|
E|------------------|-7-7-7-7-7-7-7-7?|

E|------------------|------------------|
B|------------------|------------------|
G|------------------|------------------|
D|------------------|------------------|
A|--7-7-7-7-7-7-7-7-|-5-5-5-5-5-5-5-5--|
E|--5-5-5-5-5-5-5-5-|-3-3-3-3-3-3-3-3--|

E|------------------|-----------------|
B|------------------|-----------------|
G|------------------|-----------------|
D|--7-7-7-7-7-7-7-7-|-----------------|
A|--5-5-5-5-5-5-5-5-|-9-9-9-9-9-9-9-9-|
E|------------------|-7-7-7-7-7-7-7-7?|

E|------------------|------------------|
B|------------------|------------------|
G|------------------|------------------|
D|------------------|------------------|
A|--7-7-7-7-7-7-7-7-|-5-5-5-5-5-5-5-5--|
E|--5-5-5-5-5-5-5-5-|-3-3-3-3-3-3-3-3--|

|------------------|-----------------|
B|------------------|-----------------|
G|------------------|-----------------|
D|--7-7-7-7-7-7-7-7-|-----------------|
A|--5-5-5-5-5-5-5-5-|-9-9-9-9-9-9-9-9-|
E|------------------|-7-7-7-7-7-7-7-7-|

E|------------------|----|
B|------------------|----|
G|------------------|----|
D|------------------|-5--|
A|--7-7-7-7-7-7-7-7-|-5--|
E|--5-5-5-5-5-5-5-5-|-3--|

E|----------------|----------------|---------------|
B|----------------|----------------|---------------|
G|--7?-7-7?-7-7-7-|----------------|---------------|
D|--7?-7-7?-7-7-7-|-9?-9-9--9-9-9--|-5?-5-5?-5-5-5-|
A|--5?-5-5?-5-5-5-|-9?-9-9?-9-9-9--|-5?-5-5?-5-5-5-|
E|----------------|-7?-7-7?-7-7-7--|-3?-3-3--3-3-3-|


E|-----------------|
B|-----------------|
G|-----------------|
D|--7?-7-7?-7-7-7--|
A|--7?-7-7?-7-7-7--|
E|--5?-5-5--5-5-5--|

E|----------------|----------------|---------------|
B|----------------|----------------|---------------|
G|--7?-7-7?-7-7-7-|----------------|---------------|
D|--7?-7-7?-7-7-7-|-9?-9-9--9-9-9--|-5?-5-5?-5-5-5-|
A|--5?-5-5?-5-5-5-|-9?-9-9?-9-9-9--|-5?-5-5?-5-5-5-|
E|----------------|-7?-7-7?-7-7-7--|-3?-3-3--3-3-3-|


E|-----------------|
B|-----------------|
G|-----------------|
D|--7?-7-7?-7-7-7--|
A|--7?-7-7?-7-7-7--|
E|--5?-5-5--5-5-5--|

E|--7-5--|------|------|-3?-3-3-3-7--5--|
B|-------|-7-5?-|-5-3--|----------------|
G|-------|------|------|----------------|
D|-------|------|------|----------------|
A|-------|------|------|----------------|
E|-------|------|------|----------------|

E|------------------|-----------------|
B|------------------|-----------------|
G|------------------|-----------------|
D|--7-7-7-7-7-7-7-7-|-----------------|
A|--5-5-5-5-5-5-5-5-|-9-9-9-9-9-9-9-9-|
E|------------------|-7-7-7-7-7-7-7-7?|

E|------------------|------------------|
B|------------------|------------------|
G|------------------|------------------|
D|------------------|------------------|
A|--7-7-7-7-7-7-7-7-|-5-5-5-5-5-5-5-5--|
E|--5-5-5-5-5-5-5-5-|-3-3-3-3-3-3-3-3--|

E|------------------|-----------------|
B|------------------|-----------------|
G|------------------|-----------------|
D|--7-7-7-7-7-7-7-7-|-----------------|
A|--5-5-5-5-5-5-5-5-|-9-9-9-9-9-9-9-9-|
E|------------------|-7-7-7-7-7-7-7-7?|

E|------------------|------------------|
B|------------------|------------------|
G|------------------|------------------|
D|------------------|------------------|
A|--7-7-7-7-7-7-7-7-|-5-5-5-5-5-5-5-5--|
E|--5-5-5-5-5-5-5-5-|-3-3-3-3-3-3-3-3--|

E|------------------|-----------------|
B|------------------|-----------------|
G|------------------|-----------------|
D|--7-7-7-7-7-7-7-7-|-----------------|
A|--5-5-5-5-5-5-5-5-|-9-9-9-9-9-9-9-9-|
E|------------------|-7-7-7-7-7-7-7-7?|

E|------------------|------------------|
B|------------------|------------------|
G|------------------|------------------|
D|------------------|------------------|
A|--7-7-7-7-7-7-7-7-|-5-5-5-5-5-5-5-5--|
E|--5-5-5-5-5-5-5-5-|-3-3-3-3-3-3-3-3--|

E|------------------|-----------------|
B|------------------|-----------------|
G|------------------|-----------------|
D|--7-7-7-7-7-7-7-7-|-----------------|
A|--5-5-5-5-5-5-5-5-|-9-9-9-9-9-9-9-9-|
E|------------------|-7-7-7-7-7-7-7-7-|
Pm  * * * * * * * * * * * * * * * * *-| 

                     
E|------------------|----|
B|------------------|----|
G|------------------|----|
D|------------------|-5--|
A|--7-7-7-7-7-7-7-7-|-5--|
E|--5-5-5-5-5-5-5-5-|-3--|

E|----------------|----------------|---------------|
B|----------------|----------------|---------------|
G|--7?-7-7?-7-7-7-|----------------|---------------|
D|--7?-7-7?-7-7-7-|-9?-9-9--9-9-9--|-5?-5-5?-5-5-5-|
A|--5?-5-5?-5-5-5-|-9?-9-9?-9-9-9--|-5?-5-5?-5-5-5-|
E|----------------|-7?-7-7?-7-7-7--|-3?-3-3--3-3-3-|


E|-----------------|
B|-----------------|
G|-----------------|
D|--7?-7-7?-7-7-7--|
A|--7?-7-7?-7-7-7--|
E|--5?-5-5--5-5-5--|

E|----------------|----------------|---------------|
B|----------------|----------------|---------------|
G|--7?-7-7?-7-7-7-|----------------|---------------|
D|--7?-7-7?-7-7-7-|-9?-9-9--9-9-9--|-5?-5-5?-5-5-5-|
A|--5?-5-5?-5-5-5-|-9?-9-9?-9-9-9--|-5?-5-5?-5-5-5-|
E|----------------|-7?-7-7?-7-7-7--|-3?-3-3--3-3-3-|


E|-----------------|
B|-----------------|
G|-----------------|
D|--7?-7-7?-7-7-7--|
A|--7?-7-7?-7-7-7--|
E|--5?-5-5--5-5-5--|

E|----------------|----------------|
B|----------------|----------------|
G|----------------|----------------|
D|----------------|----------------|
A|--0--0-2?-2-2-2-|-3?-3-5?-5-5-5--|
E|----------------|----------------|

E|----------------|----------------|
B|----------------|----------------|
G|----------------|----------------|
D|----------------|----------------|
A|--0--0-2?-2-2-2-|-3?-3-5?-5-5-5--|
E|----------------|----------------|

E|----------------|----------------|
B|----------------|----------------|
G|----------------|----------------|
D|----------------|----------------|
A|--0--0-2?-2-2-2-|-3?-3-5?-5-5-5--|
E|----------------|----------------|

E|----------------|----------------|
B|----------------|----------------|
G|----------------|----------------|
D|----------------|----------------|
A|--0--0-2?-2-2-2-|-3?-3-5?-5-5-5--|
E|----------------|----------------|

E|----------------|----------------|---------------|
B|----------------|----------------|---------------|
G|--7?-7-7?-7-7-7-|----------------|---------------|
D|--7?-7-7?-7-7-7-|-9?-9-9--9-9-9--|-5?-5-5?-5-5-5-|
A|--5?-5-5?-5-5-5-|-9?-9-9?-9-9-9--|-5?-5-5?-5-5-5-|
E|----------------|-7?-7-7?-7-7-7--|-3?-3-3--3-3-3-|


E|-----------------|
B|-----------------|
G|-----------------|
D|--7?-7-7?-7-7-7--|
A|--7?-7-7?-7-7-7--|
E|--5?-5-5--5-5-5--|

E|----------------|----------------|---------------|
B|----------------|----------------|---------------|
G|--7?-7-7?-7-7-7-|----------------|---------------|
D|--7?-7-7?-7-7-7-|-9?-9-9--9-9-9--|-5?-5-5?-5-5-5-|
A|--5?-5-5?-5-5-5-|-9?-9-9?-9-9-9--|-5?-5-5?-5-5-5-|
E|----------------|-7?-7-7?-7-7-7--|-3?-3-3--3-3-3-|


E|-----------------|
B|-----------------|
G|-----------------|
D|--7?-7-7?-7-7-7--|
A|--7?-7-7?-7-7-7--|
E|--5?-5-5--5-5-5--|

E|--7-5--|------|------|-3?-3-3-3-7--5--|
B|-------|-7-5?-|-5-3--|----------------|
G|-------|------|------|----------------|
D|-------|------|------|----------------|
A|-------|------|------|----------------|
E|-------|------|------|----------------|

|------------------|-----------------|
B|------------------|-----------------|
G|------------------|-----------------|
D|--7-7-7-7-7-7-7-7-|-----------------|
A|--5-5-5-5-5-5-5-5-|-9-9-9-9-9-9-9-9-|
E|------------------|-7-7-7-7-7-7-7-7?|

E|------------------|------------------|
B|------------------|------------------|
G|------------------|------------------|
D|------------------|------------------|
A|--7-7-7-7-7-7-7-7-|-5-5-5-5-5-5-5-5--|
E|--5-5-5-5-5-5-5-5-|-3-3-3-3-3-3-3-3--|

|------------------|-----------------|
B|------------------|-----------------|
G|------------------|-----------------|
D|--7-7-7-7-7-7-7-7-|-----------------|
A|--5-5-5-5-5-5-5-5-|-9-9-9-9-9-9-9-9-|
E|------------------|-7-7-7-7-7-7-7-7?|

E|------------------|------------------|
B|------------------|------------------|
G|------------------|------------------|
D|------------------|------------------|
A|--7-7-7-7-7-7-7-7-|-5-5-5-5-5-5-5-5--|
E|--5-5-5-5-5-5-5-5-|-3-3-3-3-3-3-3-3--|

Soms lijkt het net alsof de wereld draait en ik sta stil.
Buiten is 't zomer maar in mijn hoofd is 't koud en kil.
Ben je voor of ben je tegen wist ik veel.
Nu is er geen twijfel meer,
maar integendeel.

I'm sorry... ik meen het 
sorry... 'k zal het nooit of nooit meer doen 
I'm sorry... ik meen het 
sorry... but I'm a stupid boy 

Het was stom... wat ik toen zei 
maar nu zie ik... je hoort bij mij 
en ik beloof je toe geloof me het komt weer goed 
en ik sta aan jouw kant
bij alles wat je doet.

I'm sorry.. ik meen het 
sorry... 'k zal het nooit of nooit meer doen 
I'm sorry... ik meen het 
sorry... but I'm a stupid boy.

I'm sorry... ik meen het 
sorry... 'k zal het nooit of nooit meer doen 
I'm sorry... ik meen het 
sorry... but I'm a stupid boy.

I'm sorry maar... 't gaat om ons twee 
als je dit begrijpt... is alles weer oké.    

Added On December 16th, 2013

SHARE

Comments

blog comments powered by Disqus

VERSIONS

ADVERTISEMENT