Yannik Noah Tabs

Aux Arbres Citoyens

1 versions

TAB

            e:|8------|    |-----6------|     |---4----|
b:|---9---|    |--------8---|     |-----6--|       Make the down move
g:|---10--| x8 |--------8---| x4  |-----6--| x4    in mute, then make the 
d:|---10--|    |-----6------|     |---4----|       up move stepping the 
a:|8------|    |-----6------|     |---4----|       strings.
e:|8------|    |-----6------|     |---4----|



e:|8---------------------|    |-6-----------|     |-4---------|
b:|--------9--------11-9-|    |-------8-----|     |------6----|      
g:|-----10---10----------|    |-----8---8---|     |----6---6--| - Electric  
d:|---10--------10-------|    |---6-------6-|     |---4-----4-|  Guitar.    
a:|8---------------------|    |-6-----------|     |-4---------|       
e:|8---------------------|    |-6-----------|     |-4---------|


e:|---------------------------------------------|
b:|-----------14-13--------14-13--11--13-14-13--|     
g:|---10-11----------10-11----------------------|     The ending Solo
d:|---------------------------------------------|     (repeated 2 times,
a:|---------------------------------------------|      Then 1 time)
e:|---------------------------------------------|    

Added On December 16th, 2013

SHARE

Comments

blog comments powered by Disqus

ADVERTISEMENT