Yardbirds Tabs

For Your Love

6 versions

TAB

            For Your Love Tab by Yardbirds


Tabbed By Ethan Love
Kayklove3@aol.com
-----------------
The Yardbirds
Song; "For Your Love"
from album of same name

Tab for people who don't know chord names.
-----------------------

intro- standard tuning
  Em  G  A  Am   Em  G  A  Am   Em  G  A  Am
e--0--3--0--0--|--0--3--0--0--|--0--3--0--0--|
b--0--3--2--1--|--0--3--2--1--|--0--3--2--1--|
G--0--0--2--2--|--0--0--2--2--|--0--0--2--2--|
D--2--0--2--2--|--2--0--2--2--|--2--0--2--2--|
A--2--2--0--0--|--2--2--0--0--|--2--2--0--0--|
E--0--3--X--X--|--0--3--X--X--|--0--3--X--X--|
             (drums start)                   For your love

Follow this pattern twice more.

Verse, and Pre-course are exactly the same four chords.

Verse

  Em  G  A  Am   Em  G  A  Am   Em  G  A  Am
e--0--3--0--0--|--0--3--0--0--|--0--3--0--0--|
b--0--3--2--1--|--0--3--2--1--|--0--3--2--1--|
G--0--0--2--2--|--0--0--2--2--|--0--0--2--2--|
D--2--0--2--2--|--2--0--2--2--|--2--0--2--2--|
A--2--2--0--0--|--2--2--0--0--|--2--2--0--0--|
E--0--3--X--X--|--0--3--X--X--|--0--3--X--X--|
(for your love)

This gets hard to because the four chords are so short but the lyrics long

Words basically fit into each line, or every four chords, like this
--
Em            G                A                Am
I'd give you everything, and more, and that's for sure.

(for your love)

Em
I'd bring you diamond rings, and things, right to your door.

(for your love)

Em             G               A                 Am
To thrill you with delight, I'd give you diamonds bright,

Em             G               A                 Am
there'll be things that will excite, and make you dream of me at night.

--------------------------------------------------------------------
Pre Chourus
Again, the same chords

 Em  G  A  Am   Em  G  A  Am   Em  G  A  Am
e--0--3--0--0--|--0--3--0--0--|--0--3--0--0--|
b--0--3--2--1--|--0--3--2--1--|--0--3--2--1--|
G--0--0--2--2--|--0--0--2--2--|--0--0--2--2--|
D--2--0--2--2--|--2--0--2--2--|--2--0--2--2--|
A--2--2--0--0--|--2--2--0--0--|--2--2--0--0--|
E--0--3--X--X--|--0--3--X--X--|--0--3--X--X--|

Em         G         A           Am
For your Looooo-ooooooo-oooooo-oooove

Em         G         A           Am
For your looooo-ooooooo-oooooo-oooove
----------------------------------------
After prechorus, the song stops,then the drums enter.

Chorus  riff A
e---------------------|
b---------------------|
G---------------2-2---| play twice
D------1-1--4-4-------|
A--2-2----------------|
E---------------------|
       riff B
e------------------------|
b------------------------|
G------------------------| play twice
D-----------2-2--1-1-----|
A--0-0--4-4--------------|
E------------------------|

  riff A
For your love, for your love

  riff B
I'd give the stars above

  riff A
For your love, for your love

Chorus ending
e------------------------------|
b------------------------------|
G--------------1-1---4--2------|
D----------2-2-------4---------|
A-0-0--4-4-----------2--0------|
E------------------------------|
 I'd give you all I co-uld

--------------------------
Then back to the four chords and verse.
Thats it, no solo or anything, which is odd for the Birdies.

-------------------
Additional lyrics for verses

I'd give the moon, if it were mine to give
I'd give the sun, and the stars, for I live
To thrill you with delight, I'd give you diamonds bright
There'll be things that will excite, and make you dream of me at night.

EL    

Added On December 16th, 2013

SHARE

Comments

blog comments powered by Disqus