Yardbirds Tabs

Youre A Better Man Than I

1 versions

TAB

            Youre A Better Man Than I Tab by Yardbirds




your a better man than i

intro
 G           A            F#m
-------------------------------------|
-------------------------------------|
-------------------------------------|
-----5---5-------7---7-------4-----4-|
---5---5---5---7---7---7---4-----4---|
-3-----------5-----------2-----2-----|

verses
   G                          A                       F#m
(1)Can you judge a man,       By the way he wears his hair?
(2)Could you tell a wise man, By the way he speaks or spells?
(3)Can you condemn a man,     If you're faith he doesn't hold?

Can you read his mind,        By the clothes that he wears?
Is this more important,       Than the stories that he tells?
Say the colour of his skin,   Is the colour of his soul?

Em            F#m                   G              A
Can you see a bad man,       By the pattern on his tie?
And call a man a fool,       If for wealth he doesn't strive?
Could you say that men,      For king and country all must die?

chorus
           B                            A
Well then, Mr, you're a better man than I,
Yeah,      Mr, you're a better man than I,
Oh,        Mr, you're a better man than I,
           B                            F#m
Yeah,      Mr, you're a better man than I.

solo
-----------------------------------------------------------------------------------|
-----------------------------------------------------------------------------------|
-----2-4b5-------------------------------------------------------------------------|
-2-4-------4-----------------------2-4-2-4-4s7---7-7s9-9s11-11s14-14---14-14s16-16-|
-----------------------------------------------------------------------------------|
---------------2-5---4-5-4-5-4-2---------------------------------------------------|

--------------------------------------------------------------------------------|
------------------------17---------------------------------17-------------17----|
-14-16b18------14-16b17----14h16p14-14-16b17------14-16b17----14h16p14-14-16b17-|
------------16---------------------------------16-------------------------------|
--------------------------------------------------------------------------------|
--------------------------------------------------------------------------------|

-15-15-15-17b-17-14------------------------------------------------------------------------------------|
--------------------17b19---14--14--14--14--14--14--14--14--14--14--14--14--14--14--14--14-------------|
----------------------------16b-16b-16b-16b-16b-16b-16b-16b-16b-16b-16b-16b-16b-16b-16b-16b18r16-14----|
----------------------------------------------------------------------------------------------------16-|
-------------------------------------------------------------------------------------------------------|
-------------------------------------------------------------------------------------------------------|

--------------------------|
--------------------------|
---2-4b6~~~~~-4b6-2-------|
-4------------------4-2-4-|
--------------------------|
--------------------------|


>/pre>    

Added On December 16th, 2013

SHARE

Comments

blog comments powered by Disqus

ADVERTISEMENT