Yellow Ostrich Tabs

Mary

1 versions

TAB

            Author - Acarignan

Standard tuning


Verse

---------------------------------------|
----------------------------6----------|
--------5------------------------------|
-------------------------6-----6---6---|
------3----3---------4-----------4-----|
---4----------4------------------------|


Chorus

-----------------------------------------------|
----------9----------------------8-------------|
-----------------------------------------------|
------10-----10---------------8------8-----8---|
---8--------------8--------6------------6------|
-----------------------------------------------|


Keyboard part - layer1

-------------------------------------|
-------------------------------------|
---------------------------------5---|
-----------------------5--6--8-------|
-------------4--6--8-----------------|
---4--6--8---------------------------|


Keyboard part - layer 2, kicks in about halfway through the line

--------------------------------------------|
-------------------------------13--13--13---|
-------------------12--13--15---------------|
---10--12--13--15---------------------------|
--------------------------------------------|
--------------------------------------------|


Keyboard Part - Both Together (not layered)

-----------------------6--7--7--7---|
-------------6--8--9----------------|
---5--7--8----------------------5---|
-----------------------5--6--8------|
-------------4--6--7----------------|
---4--6--8--------------------------|    

Added On December 16th, 2013

SHARE

Comments

blog comments powered by Disqus

ADVERTISEMENT