Yellowcard Tabs

Afraid

2 versions

TAB

            Made in Lucena Phils.Sacred Heart College

by 

f_sario@yahoo.com


G1 -{ e b g d A E }

G2 -{ e b g d A E }

Intro-
  
G1
|-------------------------------------------------|
|-------------------------------------------------|
|-------------------------------------------------|
|-----7-----4-6-4-----4-----4-----4-----6--6------|2x
|-7------7---------7-----7-----7-----7------------|
|-0------0---------0-----0-----0-----0------------|
  
Verse-
G1
|-------------------------------------------------|
|-------------------------------------------------|
|-------------------------------------------------|
|-----7-----4-6-4-----4-----4-----4-----6--6------|2x
|-7------7---------7-----7-----7-----7------------|
|-0------0---------0-----0-----0-----0------------|

|-------------------------------------------------|
|-------------------------------------------------|
|-------------------------------------------------|
|-----7-----4-6-4-----4-----4-----4-----6--6------|
|-4------4---------4-----4-----4-----4------------|
|-0------0---------0-----0-----0-----0------------|

|-------------------------------------------------|
|-------------------------------------------------|
|-------------------------------------------------|
|-----7-----4-6-4-----4-----4-----4-----6--6------|
|-0------0---------0-----0-----0-----0------------|
|-0------0---------0-----0-----0-----0------------|
  
Refrain-
G1
|-------------------------------------------------|
|-------------------------------------------------|
|----------------------66666666--88888888---------|
|-77777777---99999999--66666666--88888888---------|
|-77777777---99999999--44444444--66666666---------|
|-55555555---77777777-----------------------------|

G2
|----------------------|---------------------------|
|----------------------|---------------------------|
|-13131313131313131313-|-111111111111111--88888888-|
|-x-x-x-x-x-x-x-x-x-x--|-x-x-x-x-x-x-x-x--xxxxxxxx-|
|-11111111111111111111-|-9-9-9-9-9-9-9-9--66666666-|
|----------------------|---------------------------|

Chorus-
G1
|-------------------------------------------------|
|-------------------------------------------------|
|-9999999--4444444--------------------------------|
|-9999999--4444444--4444444--7777777--------------|2x
|-7777777--2222222--4444444--7777777--------------|
|-------------------2222222--5555555--------------|

  
G1
|-------------------------------------------------|
|-------------------------------------------------|
|-9999999--8888888--9999999---9999999-------------|
|-xxxxxxx--xxxxxxx--xxxxxxx---xxxxxxx-------------|2x
|-7777777--6666666--7777777---7777777-------------|
|-------------------------------------------------|
  

Violin

|-0-4-0454-|-0-4-0-4-0-454-|-0-4-0-4-0-454-|   |-0-0-0-7--|   |--0-5-4---| 
|----------|---------------|---------------|   |----------|   |----------|
|----------|---------------|---------------|   |----------|   |----------|
|----------|---------------|---------------|2x |----------|4x |----------|
|----------|---------------|---------------|   |----------|   |----------|
|----------|---------------|---------------|   |----------|   |----------|



Interlude1
G1
|-------------------------------------------------|
|-------------------------------------------------|
|-------------------------------------------------|
|--2--2---222---2--2--2--222----------------------|2x
|--2--2---222---2--2--2--222----------------------|
|--0--0---000---0--0--0--000----------------------|


G2
|-------------------------------------------------|
|-------------------------------------------------|
|-14-13--11/-13-/11--11-11-11---13-13-13----------|
|-x--x---x---x---x---x--x--x----x--x--x-----------|
|-12-11--9-/-11-/9---9--9--9----11-11-11----------|
|-------------------------------------------------|
  
|----------------------------------------------|
|----------------------------------------------|
|-14-13--11/-13-/11--11-11-11---9-9-9----------|
|-x--x---x---x---x---x--x--x----x-x-x----------|
|-12-11--9-/-11-/9---9--9--9----7-7-7----------|
|----------------------------------------------|



Verse2 

(many strokes } heheheh...
G1 
|--------|---------|----------|-----------|
|--------|---------|----------|-----------|
|---9----|---9-----|----6-----|-----------|
|---9----|---9-----|----6-----|----7------|
|---7----|---6-----|----4-----|----7------|
|--------|---------|----------|----5------|

(many strokes } heheheh...

G2 
|--------|---------|----------|-----------|
|--------|---------|----------|-----------|
|---13---|----7----|----9-----|----9------|
|---x----|----x----|----x-----|----x------|
|---11---|----9----|----7-----|----7------|
|--------|---------|----------|-----------|


G1 
|--------|---------|----------|-----------|
|--------|---------|----------|-----------|
|---9----|---9-----|----6-----|-----------|
|---9----|---9-----|----6-----|----7------|
|---7----|---6-----|----4-----|----7------|
|--------|---------|----------|----5------|

G2
|--------|---------|----------|-----------|
|--------|---------|----------|-----------|
|---13---|----7----|----9-----|----11-----|
|---x----|----x----|----x-----|----x------|
|---11---|----9----|----7-----|----9------|
|--------|---------|----------|-----------|
  


Repeat Refrain



Chorus2
G1
|-------------------------------------------------|
|-------------------------------------------------|
|-9999999--4444444--------------------------------|
|-9999999--4444444--4444444--7777777--------------|2x
|-7777777--2222222--4444444--7777777--------------|
|-------------------2222222--5555555--------------|

  
G1

|-------------------------------------------------|
|-------------------------------------------------|
|-9999999--8888888--9999999---9999999-------------|
|-xxxxxxx--xxxxxxx--xxxxxxx---xxxxxxx-------------|
|-7777777--6666666--7777777---7777777-------------|
|-------------------------------------------------|

|-------------------------------------------------|
|-------------------------------------------------|
|-9999999--8888888--6666666---9999999-------------|
|-xxxxxxx--xxxxxxx--xxxxxxx---xxxxxxx-------------|
|-7777777--6666666--4444444---7777777-------------|
|-------------------------------------------------|
  

Violin

|-0-4-0454-|-0-4-0-4-0-454-|-0-4-0-4-0-454-|   |-0-0-0-7--|   |--0-5-4---| 
|----------|---------------|---------------|   |----------|   |----------|
|----------|---------------|---------------|   |----------|   |----------|
|----------|---------------|---------------|2x |----------|4x |----------|
|----------|---------------|---------------|   |----------|   |----------|
|----------|---------------|---------------|   |----------|   |----------|



Bridge-

G1
    8x        8x         8x        8x
|--------|---------|----------|-----------|
|--------|---------|----------|-----------|
|---6----|----9----|----------|-----------|
|---6----|----9----|----9-----|----4------|4x
|---4----|----7----|----9-----|----4------|
|--------|---------|----7-----|----2------|
  
G2
  Many x
|--------|------------------------------|
|--------|------------------------------|
|---13---|----16---14----13----11-------|
|---x----|----x--s-x---s-x---s-x--------|4x
|---11---|----14---12----11----9--------|
|--------|------------------------------|
  

Birdge2



G1
No
Distortion 
|-------------------------------------------------|
|-------------------------------------------------|
|-9999999--4444444--------------------------------|
|-9999999--4444444--4444444--7777777--------------|
|-7777777--2222222--4444444--7777777--------------|
|-------------------2222222--5555555--------------|

G2- Palm Muted
|-----------------------------------------|
|-----------------------------------------|
|---9----9-11-9----9---9---9-11-9---9-----|
|-9---9----------9---9---9--------9-------|
|-----------------------------------------|
|-----------------------------------------|

|-----------------------------------------|
|-----------------------------------------|
|---7---7-9-7------7---7---7-9-7----7-----|
|-9---9----------9---9---9--------9-------|
|-----------------------------------------|
|-----------------------------------------|

|-----------------------------------------|
|-----------------------------------------|
|---6---6-7-6------6---6---6-7-6----6-----|
|-7---7----------7---7---7--------7-------|
|-----------------------------------------|
|-----------------------------------------|

|-----------------------------------------|
|-----------------------------------------|
|---9----9-11-9----9---9---9-11-9---9-----|
|-9---9----------9---9---9--------9-------|2x
|-----------------------------------------|
|-----------------------------------------|

Chorus-
G1
|-------------------------------------------------|
|-------------------------------------------------|
|-9999999--4444444--------------------------------|
|-9999999--4444444--4444444--7777777--------------|2x
|-7777777--2222222--4444444--7777777--------------|
|-------------------2222222--5555555--------------|

  
G1
|-------------------------------------------------|
|-------------------------------------------------|
|-9999999--8888888--9999999---9999999-------------|
|-xxxxxxx--xxxxxxx--xxxxxxx---xxxxxxx-------------|
|-7777777--6666666--7777777---7777777-------------|
|-------------------------------------------------|

|-------------------------------------------------|
|-------------------------------------------------|
|-9999999--1111111111111------6666666---9999999---|
|-xxxxxxx--x-x-x-x-x-x-x------xxxxxxx---xxxxxxx---|
|-7777777--9-9-9-9-9-9-9------4444444---7777777---|
|-------------------------------------------------|
  
  

Violin

|-0-4-0454-|-0-4-0-4-0-454-|-0-4-0-4-0-454-|   |-0-0-0-7--|   |--0-5-4---| 
|----------|---------------|---------------|   |----------|   |----------|
|----------|---------------|---------------|   |----------|   |----------|
|----------|---------------|---------------|2x |----------|4x |----------|
|----------|---------------|---------------|   |----------|   |----------|
|----------|---------------|---------------|   |----------|   |----------|



Outro 2x
G1
|-------------------------------------------------|
|-------------------------------------------------|
|-------------------------------------------------|
|--2--2---222---2--2--2--222----------------------|2x
|--2--2---222---2--2--2--222----------------------|
|--0--0---000---0--0--0--000----------------------|


G2
|-------------------------------------------------|
|-------------------------------------------------|
|-14-13--11/-13-/11--11-11-11---13-13-13----------|
|-x--x---x---x---x---x--x--x----x--x--x-----------|
|-12-11--9-/-11-/9---9--9--9----11-11-11----------|
|-------------------------------------------------|
  
|----------------------------------------------|
|----------------------------------------------|
|-14-13--11/-13-/11--11-11-11---9-9-9----------|
|-x--x---x---x---x---x--x--x----x-x-x----------|
|-12-11--9-/-11-/9---9--9--9----7-7-7----------|
|----------------------------------------------|

End-    

Added On December 16th, 2013

SHARE

Comments

blog comments powered by Disqus

VERSIONS

ADVERTISEMENT