Yellowcard Tabs

Keeper

2 versions

TAB

            mukhang bayag ang tumingin dito!!!!!!!!!!!!!!!

Intro-
1.
Guitar1
|----------------9-----10----------------9------10-------------------|
|--------7------------------------7---------------------8-------8----|
|--------------------------------------------------------------------|
|---0-------0-------0-------0-------0-------0--------0-------0-------|2x
|--------------------------------------------------------------------|
|--------------------------------------------------------------------|


2.
Guitar1
|----------------9-----10----------------9------10-------------------|
|--------7------------------------7---------------------8-------8----|
|--------------------------------------------------------------------|
|---0-------0-------0-------0-------0-------0--------0-------0-------|2x
|--------------------------------------------------------------------|
|--------------------------------------------------------------------|


|--------------------------------------------------|  |------|
|--------------------------------------------------|  |------|
|--777777777-----------77777777777777--------------|  |--7---|
|--777777777--777777---77777777777777--------------|2x|--7---|
|--555555555--777777---55555555555555--------------|  |--5---|
|-------------555555---33333333333333--------------|  |------|


Verse-
Guitar1

|-------------------------------------------|  |------|
|-------------------------------------------|  |------|
|----77777777-------------------------------|  |--7---|
|----77777777-777777---555555555555---------|2x|--7---|
|----55555555-777777---555555555555---------|  |--5---|
|-------------555555---333333333333---------|  |------|


Post chorus

|--------------------------------------|
|--------------------------------------|
|--------------------------------------|
|-7-7-7-7-7-7-7-7-7-7-7-7--------------|
|-5-5-5-5-5-5-5-5-5-5-5-5--------------|
|--------------------------------------|

Chorus
G1
|------------------------------------------------|
|------------------------------------------------|
|--777777777------------44444444-----------------|
|--777777777-5555555555-44444444-55555555--------|2x
|--555555555-5555555555-22222222-55555555--------|
|------------3333333333----------33333333--------|

G2

|---------------------------------------------------------|
|---------------------------------------------------------|
|-7777777777777777777777---11-12-11-9-7777777-------------|
|-xxxxxxxxxxxxxxxxxxxxxx---x--x--x--x-xxxxxxx-------------|
|-5555555555555555555555---9--10-9--7-5555555-------------|
|---------------------------------------------------------|



verse2

Guitar1
|----------------9-----10----------------9------10-------------------|
|--------7------------------------7---------------------8-------8----|
|--------------------------------------------------------------------|
|---0-------0-------0-------0-------0-------0--------0-------0-------|2x
|--------------------------------------------------------------------|
|--------------------------------------------------------------------|


|--------------------------------------|
|--7--8--7---8--7---8---7---8---7--8---|
|--------------------------------------|
|--------------------------------------|
|--------------------------------------|
|--------------------------------------|

Repeat Chorus


Then


Guitar1
|----------------9-----10----------------9------10-------------------|
|--------7------------------------7---------------------8-------8----|
|--------------------------------------------------------------------|
|---0-------0-------0-------0-------0-------0--------0-------0-------|
|--------------------------------------------------------------------|
|--------------------------------------------------------------------|

g2
|----------------------------------------|  |-------------------|
|----------------------------------------|  |-------------------|
|----777777------------------------------|  |-------------------|
|----777777-777777-9999999--55555555-----|2x|-2222-4444-555555~-|
|----555555-777777-9999999--55555555-----|  |-2222-4444-555555~-|
|-----------555555-7777777--33333333-----|  |-0000-2222-333333~-|

repeat chorus-


bridge

G1
|------------------------------------------------|
|------------------------------------------------|
|--777777777------------44444444-----------------|
|--777777777-5555555555-44444444-55555555--------|2x
|--555555555-5555555555-22222222-55555555--------|
|------------3333333333----------33333333--------|

G2
|---------------------------------------------------------|
|---------------------------------------------------------|
|-7777777777777777777777---11-12-11-9-7777777-------------|
|-xxxxxxxxxxxxxxxxxxxxxx---x--x--x--x-xxxxxxx-------------|
|-5555555555555555555555---9--10-9--7-5555555-------------|
|---------------------------------------------------------|


|-----------------------------------------------------------------------|
|-----------------------------------------------------------------------|
|--11111111--1414141414-111111---11-12-11-9-7---11-12-11-9-7777777------|
|--xxxxxxx---xxxxxxxxxx-xxxxx----x--x--x--x-x---x--x--x--x-xxxxxxx------|
|--9999999---1212121212-99999----9--10-9--7-5---9--10-9--7-5555555------|
|-----------------------------------------------------------------------|

End with

Guitar1
|----------------9-----10----------------9------10-------------------|
|--------7------------------------7---------------------8-------8----|
|--------------------------------------------------------------------|
|---0-------0-------0-------0-------0-------0--------0-------0-------|
|--------------------------------------------------------------------|
|--------------------------------------------------------------------|


|--------------------------------------|
|--7--8--7---8--7---8---7---8---7--8---|
|--------------------------------------|
|--------------------------------------|
|--------------------------------------|
|--------------------------------------|    

Added On December 16th, 2013

SHARE

Comments

blog comments powered by Disqus

VERSIONS

ADVERTISEMENT