Yes Tabs

Yours Is No Disgrace

2 versions

TAB

            Yours Is No Disgrace Tab by Yes


-------------------------------------------------------------------------------
		Yours Is No Disgrace - YES
-------------------------------------------------------------------------------
Tabbed by:OLMSTEAD,CHRIS
Email:MEGADV8@SBCGLOBAL.NET
DATE: JULY 30 2006
Tuning:STANDARD E

e|-0---5-0--5-----5--5-----5-5-0--7\-----------------------------------------|
B|-0-X-5-0--5-X-7-5--5-X-7-5-5-0--7\-----------------------------------------|
G|-1-X-6-1--6-X-7-6--6-X-7-6-6-1--8\-----------------------------------------|
D|-2-X-7-2--7-X-7-7--7-X-7-7-7-2--9\-----------------------------------------|
A|-2-X-7-2--7-X-5-7--7-X-5-7-7-2--9\-----------------------------------------|
E|-0---5-0--5-----5--5-----5-5-O--7\-----------------------------------------|
USE FINGERS 342 WHEN FORMING E CHORD AND SLIDE INTO BAR CHORD A.
e|---------------------------------------------------------------------------|
B|----5~--5-7-5--8-7-5-------------------------------------------------------|
G|-\6---6------7-------7/9~--------------------------------------------------|
D|---------------------------------------------------------------------------|
A|---------------------------------------------------------------------------|
E|---------------------------------------------------------------------------|

e|---------------------------------------------------------------------------|
B|19P16----21P16------19P16---21P16-----19P16--------------------------------|
G|------16-------16----------16------16--------16----------------------------|
D|---------------------------------------------------------------------------|
A|---------------------------------------------------------------------------|
E|---------------------------------------------------------------------------|

e|---------------------------------------------------------------------------|
B|17P14----19P14-----17P14---19P14-----17P14---------------------------------|
G|------14-------14--------14------14--------14------------------------------|
D|---------------------------------------------------------------------------|
A|---------------------------------------------------------------------------|
E|---------------------------------------------------------------------------|

e|16P12----17P12----16P12----17P12----16P12-------14H16-14-------------------|
B|------14-------14-------14-------14-------14-------------16\14P12----------|
G|---------------------------------------------------------------------------|
D|---------------------------------------------------------------------------|
A|---------------------------------------------------------------------------|
E|---------------------------------------------------------------------------|

e|---------------------------------------------------------------------------|
B|---------------------------------------------------------------------------|
G|13P12\11-------------------------------------------------------------------|
D|---------13\11-9-----------------------------------------------------------|
A|-----------------11--------------------------------------------------------|
E|---------------------------------------------------------------------------|

e|---------------------------------------------------------------------------|
B|---------------------------------------------------------------------------|
G|---------------------------------------------------------------------------|
D|---------------------------------------------------------------------------|
A|---------------------------------------------------------------------------|
E|---------------------------------------------------------------------------|

e|---------------------------------------------------------------------------|
B|---------------------------------------------------------------------------|
G|---------------------------------------------------------------------------|
D|---------------------------------------------------------------------------|
A|---------------------------------------------------------------------------|
E|---------------------------------------------------------------------------|    

Added On December 16th, 2013

SHARE

Comments

blog comments powered by Disqus

VERSIONS

ADVERTISEMENT