Ying Yang Twins Tabs

Dangerous

2 versions

TAB

            Dangerous Tab by Ying Yang Twins


----------------------------------------------------------------------------
		       Ying Yang Twins - Dangerous
----------------------------------------------------------------------------
Tabbed by: Giovanni
Email:imacarfreak14@msn.com

Tuning: Standard

Intro (Heavily Distorted)
e|-------------------------------------------------------------------------|
B|-------------------------------------------------------------------------|
G|--------2h4p2------------------------------------------------------------|
D|----0h4-------2--------4-------2......---0...----------------------------|
A|--2--------------2....----2-0--------------------------------------------|
E|---------------------------------------3------2~~~~~~--------------------|
*********************************** OR *************************************
e|-------------------------------------------------------------------------|
B|-------------------------------------------------------------------------|
G|--------2h4p2-------4-------2--------------------------------------------|
D|----0h4-------2-----4-------2----5----4.....-----------------------------|
A|--2--------------2-----2-0-------5----4.....-----------------------------|
E|-------------------------------3------2.....-----------------------------|

      
Riff (Clean)                                          
e|-------------------------------------------------------------------------|
B|-------------------------------------------------------------------------|
G|----------------------2h4p2---------------------------2h4p2--------------|
D|-----0-4-4-0-4----0-4-------4-0------0-4-4-0-4----0-4-------4-0----------|
A|-2-X------------2----------------2-X------------2------------------------|
E|-------------------------------------------------------------------------|

e|-------------------------------------------------------------------------|
B|----------------------3h5p3---------------------------3h5p3--------------|
G|-----0-4-4-0-4----0-4-------4-0------0-4-4-0-4----0-4-------4-0----------|
D|-2-X------------2----------------2-X------------2------------------------|
A|-------------------------------------------------------------------------|
E|-------------------------------------------------------------------------|
(Repeat throughout song)

Black Betty Part (Distorted). Kinda hard to hear, you dont have to play this
e|-------|
B|-------|
G|-------|
D|---9---|
A|---9---|
E|---7---| (Repeat however many times you hear it)


Outro (Heavily Distorted)
e|-------------------------------------------------------------------------|
B|-------------------------------------------------------------------------|
G|--------2h4p2-------4-------2------------------------2h4p2---------------|
D|----0h4-------2-----4-------2----5----4.....-----0h4-------2--9\---------|
A|--2--------------2-----2-0-------5----4.....---2--------------9\---------|
E|-------------------------------3------2.....------------------7\---------|



| .  let ring
| /  slide up
| \  slide down
| h  hammer-on
| p  pull-off
| ~  vibrato
| +  harmonic
| x  Mute note
============================================================================    

Added On December 16th, 2013

SHARE

Comments

blog comments powered by Disqus

VERSIONS

ADVERTISEMENT