Yoko Kanno Tabs

Rain

1 versions

TAB

            Rain
From Cowboy Bebop
Composed by Yoko Kanno

E--1------------1------------1------------1---|
B--2------------2------------2------------2---|
G--3------------3------------3------------3---|
D---------------------------------------------|
A---------------------------------------------|
E---------------------------------------------|

   I don't feel a thing
   Mother used to say

E------1-----------1-----------1-----------1--|
B------1-----------1-----------1-----------1--|
G------2-----------2-----------2-----------2--|
D---------------------------------------------|
A---------------------------------------------|
E---------------------------------------------|

 And I stopped remembering
If you want you'll find a way

E----5---------5--------5-------5-------------|
G----6---------6--------5-------5-------------|
B----7---------7--------6-------6-------------|
D---------------------------------------------|
A---------------------------------------------|
E---------------------------------------------|

The days are just like moments turned to
But mother never danced through fire


                                 (First time only)
E--1------------1------------1-----------(1)------|
G--1------------1------------1-----------(1)------|
B--2------------2------------2-----------(2)------|
D-------------------------------------------------|
A-------------------------------------------------|
E-------------------------------------------------|

      Hours
      Shower


 *Strum as desired
E--5------------5------------5------------5------------|
G--6------------5------------6------------5------------|
B--7------------6------------7------------6------------|
D--7------------7------------7------------7------------|
A--5------------7------------5------------7------------|
E---------------5-------------------------5------------|

   Walk, in the rain, in the rain, in the rain


 *
E-------------9------------9----------|
B-------------10-----------9----------|
G-------------11-----------10---------|
D-------------11-----------11---------|
A-------------9------------11---------|
E--------------------------9----------|

I walk in the rain, in the rain

 *
E-----9-----------9------------|
B-----10----------9------------|
G-----11----------10-----------|
D-----11----------11-----------|
A-----9-----------11-----------|
E-----------------9------------|

Is it right, or is it wrong


E--9-----------9-----------9-----------9----|
B--10----------10----------10----------10---|
G--11----------11----------11----------11---|
D--11----------11----------11----------11---|
A--9-----------9-----------9-----------9----|
E-------------------------------------------|

                       And is it here

E----9-----------9-----------9-----------|
B----9-----------9-----------9-----------|
G----10----------10----------10----------|
D----11----------11----------11----------|
A----11----------11----------11----------|
E----9-----------9-----------9-----------|

That I,                    belong

E--1------------1------------1------------1--|
B--2------------2------------2------------2--|
G--3------------3------------3------------3--|
D--------------------------------------------|
A--------------------------------------------|
E--------------------------------------------|

   I don't hear a sound
   If there is a hell


E--------1---------1------------------------|
B--------1---------1------------------------|
G--------2---------2------------------------|
D-------------------------------------------|
A-------------------------------------------|
E---------------------------1-3-4----4-3-1--|

  Silent faces in the ground
I'm sure this is how it smells

E----5----------5----------5----------5------|
G----6----------6----------5----------5------|
B----7----------7----------6----------6------|
D--------------------------------------------|
A--------------------------------------------|
E--------------------------------------------|

 The quiet screams,    but I refuse
     Wish this were a dream,      but no

                       (First time only)
                       [Second time only]
E--1----------1--------[1]--------------------|
B--1----------1--------[1]--------------------|
G--2----------2--------[2]--------------------|
D---------------------------------------------|
A-----------------------(---------1--3---)----|
E-----------------------(1--3--4--------1)----|

To listen
It isn't


 *
E--5------------5------------5------------5------------|
G--6------------5------------6------------5------------|
B--7------------6------------7------------6------------|
D--7------------7------------7------------7------------|
A--5------------7------------5------------7------------|
E---------------5-------------------------5------------|

   Walk, in the rain, in the rain, in the rain


 *
E-------------9------------9----------|
B-------------10-----------9----------|
G-------------11-----------10---------|
D-------------11-----------11---------|
A-------------9------------11---------|
E--------------------------9----------|

I walk in the rain, in the rain

 *
E-----9-----------9------------|
B-----10----------9------------|
G-----11----------10-----------|
D-----11----------11-----------|
A-----9-----------11-----------|
E-----------------9------------|

 Am I right, or am I wrong


E--9-----------9-----------9-----------9----|
B--10----------10----------10----------10---|
G--11----------11----------11----------11---|
D--11----------11----------11----------11---|
A--9-----------9-----------9-----------9----|
E-------------------------------------------|

                       And is it here

E----9-----------9-----------9-----------|
B----9-----------9-----------9-----------|
G----10----------10----------10----------|
D----11----------11----------11----------|
A----11----------11----------11----------|
E----9-----------9-----------9-----------|

That I,                    belong

E------------------4--3-1s3---------------------------|
B--------------1-------------3-3----------------------|
G----0-2---2-3---------------------3-2----------------|
D--3--------------------------------------------------|
A-----------------------------------------------------|
E-----------------------------------------------------|


E------------------------1-1-1--4-3-1s3---11-11---10--|
B-----3-4-3-4--1--------------------------------------|
G--3----------------3-2-------------------------------|
D-----------------------------------------------------|
A-----------------------------------------------------|
E-----------------------------------------------------|

E--1-----------1-----------1-----------1-----------|
B--2-----------2-----------2-----------2-----------|
G--3-----------3-----------3-----------3-----------|
D--------------------------------------------------|
A--------------------------------------------------|
E--------------------------------------------------|

   Walk,                               in the


E--1-----------1-----------1-----------1-----------|
B--1-----------1-----------1-----------1-----------|
G--2-----------2-----------2-----------2-----------|
D--------------------------------------------------|
A--------------------------------------------------|
E--------------------------------------------------|

   Rain,                               in the


E--1-----------1-----------1-----------1-----------|
B--2-----------2-----------2-----------2-----------|
G--3-----------3-----------3-----------3-----------|
D--------------------------------------------------|
A--------------------------------------------------|
E--------------------------------------------------|

  Rain,                                in the


E--1-----------1-----------1-----------1-----------|
B--1-----------1-----------1-----------1-----------|
G--2-----------2-----------2-----------2-----------|
D--------------------------------------------------|
A--------------------------------------------------|
E--------------------------------------------------|

   Rain,                             I walk in the


E--5----------5------------5-----------5-----------|
G--6----------6------------6-----------6-----------|
B--7----------7------------7-----------7-----------|
D--------------------------------------------------|
A--------------------------------------------------|
E--------------------------------------------------|

   Rain,                               in the


E--5----------5------------5-----------5-----------|
G--5----------5------------5-----------5-----------|
B--6----------6------------6-----------6-----------|
D--------------------------------------------------|
A--------------------------------------------------|
E--------------------------------------------------|

   Rain,                               Why do


E--5----------5------------5-----------5-----------|
G--6----------6------------6-----------6-----------|
B--7----------7------------7-----------7-----------|
D--------------------------------------------------|
A--------------------------------------------------|
E--------------------------------------------------|

   I                                   feel so


E--5----------5------------5-----------5-----------|
G--5----------5------------5-----------5-----------|
B--6----------6------------6-----------6-----------|
D--------------------------------------------------|
A--------------------------------------------------|
E--------------------------------------------------|

 Alone


E--5----------5------------5-----------5-----------|
G--6----------6------------6-----------6-----------|
B--7----------7------------7-----------7-----------|
D--------------------------------------------------|
A--------------------------------------------------|
E--------------------------------------------------|

                  For some reason


E--5----------5------------5-----------5--------5--|
G--5----------5------------5-----------5--------6--|
B--6----------6------------6-----------6--------7--|
D-----------------------------------------------7--|
A-----------------------------------------------5--|
E--------------------------------------------------|

 I think                of home    

Added On December 16th, 2013

SHARE

Comments

blog comments powered by Disqus

ADVERTISEMENT