You Me At Six Tabs

Knew It Was You

1 versions

TAB

            -------------------------------------------------------------------------------
			     SONG NAME - Band Name
-------------------------------------------------------------------------------
Tabbed by:ImTobiasHehe
Email:toadfaulkner@hotmail.co.uk

Tuning: Drop D

Intro:
e|-----------------------------------------------------------------|
B|-----------------------------------------------------------------|
G|-----------------------------------------------------------------|
D|---2-2-0-2-2---33------------55555555----------------------------|
A|---3-3-0-3-2---33----x3------55555555----------------------------|
E|---------------33------------55555555----------------------------| x3  (only palm mute
                               ********                                   the first time.)
Verse:
e|-----------------------------------------------------------------|
B|-----------------------------------------------------------------|
G|-----------------------------------------------------------------|
D|---33-33--77--55-------------------------------------------------|
A|---33-33--77--55-------------------------------------------------|
E|---33-33--77--55-------------------------------------------------| x8 (palm mute first 4 times)

Chorus
e|-----------------------------------------------------------------------|
B|-----------------------------------------------------------------------|
G|-------------------55555555555555555-----------------------------------|
D|-3333333333333333--5555555555555555--7777777777777777--5555555555555555|
A|-3333333333333333--3333333333333333--7777777777777777--5555555555555555|
E|-3333333333333333--------------------7777777777777777--5555555555555555|
    (^16 times)

Intro x1

Verse

Chorus x2

Breakdown/Bridge
e|------------------------------------------------------|
B|------------------------------------------------------|
G|------------------------------------------------------|
D|--77777777--55555555--3333333333333333----------------|
A|--77777777--55555555--3333333333333333----------------|
E|--77777777--55555555--3333333333333333----------------| x4

e|------8------------8------------8---------------------|
B|------------------------------------------------------|
G|--5-5---7-5-5--5-5---7-5-5--5-5---5-5-7-5-7~----------|
D|------------------------------------------------------|
A|------------------------------------------------------|
E|------------------------------------------------------|
 
Chorus x2
End(:

Hope that sounds alright :D    

Added On December 16th, 2013

SHARE

Comments

blog comments powered by Disqus

ADVERTISEMENT