You Say Party We Say Die Tabs

Jazz Crabs

1 versions

TAB

            official website:
http://www.yousaypartywesaydie.ca/


intro and verse:
e|------------------------------|
B|------------------------------|
G|---------------9--------------|
D|------------------------------|
A|-7-7-7-7-7-7-7----------------|
E|------------------------------|

bridge:
e|----------------|-------------|
B|----------------|-------------|
G|----------------|-------------|
D|-7--10--9--12---|-7--10--9--8-|
A|-7--10--9--12---|-7--10--9--8-|
E|-5--8---7--10---|-5--8---7--6-|


it's easy.    

Added On December 16th, 2013

SHARE

Comments

blog comments powered by Disqus

ADVERTISEMENT