You Say Party We Say Die Tabs

Monster

1 versions

TAB

            You Say Party! We Say Die!
Monster
Lose All Time
(normal E tuning)

Tab by Jaden Sherrard
Jaden29@hotmail.com


Intro
(First One)
------------------------------------------|
------------------------------------------|
--11.5-11.5-11.5-11.5---12-~--~--~----12--|
------------------------------------------|
------------------------------------------|
------------------------------------------|

Intro
(Second One)

Everywhere is Frighting,
---------------|
---------------|
--11/12-~--12--|
---------------|
---------------|
---------------|

There is something you are needing to find...

Chorus
(Guitar Part)

(First one)
-----------------------|
-----------------------|
---12-12--12-12-9------| (x2)
------------------10---|
-----------------------|
-----------------------|


--------------------------------------------|
--------------------------------------------|
-12-12-12-12-12-12--------------------------|
---------------------10-10----------12-12---|
---------------------------7--11-11---------|
--------------------------------------------|

(Second one)

-----------------------|
-----------------------|
---12-12--12-12----9---|  (x2)
----------------10-----|
-----------------------|
-----------------------|


--------------------------------------------|
--------------------------------------------|
-12-12-12-12-12-12--------------------------|
---------------------10-10----------12-12---|
---------------------------7--11-11---------|
--------------------------------------------|

Verse 1

------------------------------------------------|
------------------------------------------------|
---x-x--x-x-x-x---xx--x-x-x-x-12---x-x-x-x-x-x--|
------------------------------------------------|
------------------------------------------------|
------------------------------------------------|


-------------------------|
-------------------------|
-------------------------|
--10-10----------12-12---|
--------7--11-11---------|
-------------------------|


-----------------------------------------------------|
-----------------------------------------------------|
---x-x--x-x-x-x---x-x-9-12-9-12---12-12-12-12-12-12--|
-----------------------------------------------------|
-----------------------------------------------------|
-----------------------------------------------------|


-------------------------|
-------------------------|
-------------------------|
--10-10----------12-12---|
---------7--11-11--------|
-------------------------|

Verse 2

Our Hearts...

-------------------------------------------------------|
-------------------------------------------------------|
--5---5-5-5--3-3-4-4-5-5-6-6---5-4-4--4-4--5-4-4--4-4--|
-------------------------------------------------------|
-------------------------------------------------------|
-------------------------------------------------------|

-Chorus-

-Verse 1-

Verse 2
(there is a little added part here)

----------------|
----------------|
---2--0---2--4--|
----------------|
----------------|
----------------|

Verse 3

Oooh! Ah! Oooooooh!!!
-----------------------------------|
-----------------------------------|
---12-x-12--9-9---12-12-12-12--9-9-|
-----------------------------------|
-----------------------------------|
-----------------------------------|


----------------------------------------|
----------------------------------------|
-12-12-12-12-12-12-9-9-9-9-10-10-10-10--| (x6)
----------------------------------------|
----------------------------------------|
----------------------------------------|

Bridge(bass)

Tear Out...
----------------------------------|
----------------------------0-----| (x2)
---3---3-----0-----3-----0--------|
----------0-----------0-----------|


Outro

--------------------------------------------|
--------------------------------------------|
--12-12-12--9-9-9---------------------------|
-------------------10-10-11-11-12-12-13-13--|
--------------------------------------------|
--------------------------------------------|


-------------------------------------------------|
-------------------------------------------------|
--12-12-12-12-12-12-12---------------------------|
------------------------10-10-11-11-12-12-13-13--|
-------------------------------------------------|
-------------------------------------------------|


---------------------------------------------------------|
---------------------------------------------------------|
--12-12-12--9-9-9--10-10-11-11-12-12-13-13-13-13-13-13---|
---------------------------------------------------------|
---------------------------------------------------------|
---------------------------------------------------------|


--------------------------|
--------------------------|
-15-15-16-16-17-17-18-18--|
--------------------------|
--------------------------|
--------------------------|


--------------------------|
--------------------------|
--12-12--15-16-16-17-17---| (x2)
--------------------------|
--------------------------|
--------------------------|


------------------------------------------|
-----------------15-15-16-16-17-17-18-18--|
-12-12--15-15-15--------------------------|
------------------------------------------|
------------------------------------------|
------------------------------------------|


---------------------------|
---------------------------|
--12-12--15-16-16-17-17----| (x2)
---------------------------|
---------------------------|
---------------------------|


(ending one)
--------------------------------------------0--|
------------------15-15-16-16-17-17-18-18---0--|
--12-12--15-15-15---------------------------0--|
-----------------------------------------------|
-----------------------------------------------|
-----------------------------------------------|

(End)    

Added On December 16th, 2013

SHARE

Comments

blog comments powered by Disqus

ADVERTISEMENT