Young Guns Tabs

Beneath The Waves

1 versions

TAB

            it's definitely not perfect but it works great on it's own or along to the song ...!!!!
i've put in tabs for the intro instead of chords because that's how i play it ... 

standard tuning

INTRO:

e|-------------------------------------|
B|-------------------------------------|
G|-------------------------------------|  X2
D|-------------------------------------|
A|-------------------------------5-5---|
E|-7-7-7-7-7-7-10-10-6-6-6-6-6-6-------|


e|--19~-----------------------------------------14-17--|
B|-----19~-----17-19----17-19----15-17~---15-17--------|
G|----------16-------16-------16-------16--------------|  X2
D|-----------------------------------------------------|
A|-----------------------------------------------------|
E|-----------------------------------------------------|    

Added On December 16th, 2013

SHARE

Comments

blog comments powered by Disqus

ADVERTISEMENT