Young The Giant Tabs

West Virginia

1 versions

TAB

            -------------------------------------------------------------------------------
                            West Virginia-Young the Giant
-------------------------------------------------------------------------------

Tabbed by:UlmerIsANerd
E-mail:tiereney.ulmer.nerdybynature@gmail.com

Tuning:Standard
The song repeats itself after the chorus;I'm not really sure about the chorus,but be
free to comment. This is my first tab, and I learned this by ear,or there can be some mistakes
Enjoy!


Verse:
E|--------------------------------------------------------------------|
B|--0-0-0-0------------0-------------------0-------------0------------|
G|----------2--2-0-2-0----2-0-2-0----2-0-2---------0-2-0----2-0-2-0---|
D|--------------------------------0----------2-2-2------------------0-|
A|--------------------------------------------------------------------|
E|--------------------------------------------------------------------|

Pre-chorus:
E|--------0-----------|
B|--3~--3---2~--0---7-|
G|----------------2---|
D|--------------------|
A|--------------------|
E|--------------------|

Chorus:
E|-------------------------------------------------------------------------------------|
B|--7-7-7---10-8-5-5-5-0-8-7---7-7-7---10-8-5-5-5-0-8-7---7-7-7---10-12-5-5-5-0-8-7-8~-|
G|--------7--------------------------7--------------------------7----------------------|
D|-------------------------------------------------------------------------------------|
A|-------------------------------------------------------------------------------------|
E|-------------------------------------------------------------------------------------|
************************************

| /   slide up
| \   slide down
| h   hammer-on
| p   pull-off
| ~   vibrato
| +   harmonic
| x   Mute note
| b   Bend
| pb  Pre-bend
| br  Bend release
| pbr Pre-bend release
| brb Bend release bend

************************************    

Added On December 16th, 2013

SHARE

Comments

blog comments powered by Disqus

ADVERTISEMENT