Your Name In Vain Tabs

Welcome To The Academy

1 versions

TAB

            tabbed by patrick bruce
song:welcome to the academy
artist:your name in vain


intro:
Gtr2:
hey lets breathe together....
e--------------------------|
B--------------------------|
G-----77------77------77---|
D---77--77--77--77--77--77-|many times
A-55--------------55-------|
D---------55---------------|
         woooooooo......
e--------------------------|
B-------------10~----------|
G-7777777---99-------------|
D-5555555-77---------------|
A-5555555------------------|
D-5555555------------------|
  .......
chorus:
i run you follow..so ican be....
e------------------------------|
B------------------------------|
G-777777-444444-999999-777777--|
D-777777-444444-777777-555555--|
A-555555-222222-777777-555555--|
D---------------777777-555555--|

verse:        we could cut you..
e-------------|------------------|
B-------------|------------------|
G-------------|-7777777----------|
D-0000-5-5555-|-5555555-7777777--|
A-0000-5-5555-|-5555555-7777777--|
D-0000-5-5555-|-5555555-7777777--|
                ....... .......
repeat chorus

verse2
you look like...
e------------------|
B------------------|
G-7777777-7777777--|
D-7777777-5555555--|
A-5555555-5555555--|
D---------5555555--|
  ....... .......
gtr2:
e------------------|
B-2223333555553333-|
G------------------|
D------------------|
A------------------|
D------------------|

i welcome you to the academy...
e------------------|
B------------------|
G------------------|
D-5555777755557777-|
A-5555777755557777-|
D-5555777755557777-|
  ...............
repeat chorus:
e----------------------|
B----------------------|
G----------------------|
D-000-00000-000-00000--|
A-000-00000-000-00000--|
D-000-00000-000-00000--|
      .....     .....
(throat)
welcome to the academy...
e----------------------|
B----------------------|
G----------------------|
D-000-00000-000-00000--|
A-000-00000-000-00000--|
D-000-00000-000-00000--|
      .....     .....
e------------------------------|
B------------------------------|
G-7777/9999/1111/121212/141414-|
D-xxxx/xxxx/xxxx/xxxxxx/xxxxxx-|
A-5555/7777/9999/101010/121212-|
D------------------------------|

e----------------------|
B----------------------|
G----------------------|
D-000-00000-000-00000--|
A-000-00000-000-00000--|
D-000-00000-000-00000--|
(screams)
e------------------------------|
B------------------------------|
G-7777/9999/1111/121212/141414-|
D-xxxx/xxxx/xxxx/xxxxxx/xxxxxx-|
A-5555/7777/9999/101010/121212-|
D------------------------------|
break down:
bass line
G-------------------------|
D-------------------------|
A-55555-22222-00000-------|
D-------------------55555-|
tonight..tonight....
e-000000-|-------12----------------------12--------------12p-|
B-555555-|-15-14----15-14-1212-12--15-14----15-14-1212-12----|
G--------|---------------------------------------------------|
D--------|---------------------------------------------------|
A--------|---------------------------------------------------|
D--------|---------------------------------------------------|

i keep to love you..coz you're the one..
e------------------------------|
B------------------------------|
G-777777-444444-999999-777777--|
D-777777-444444-777777-555555--|
A-555555-222222-777777-555555--|
D---------------777777-555555--|

it all happens again when its....
e-----------------------------|
B-----------------------------|
G-7777--9999--1111--12--14-7~-|
D-xxxx--xxxx--xxxx--xx--xx-7~-|
A-5555--7777--9999--10--12-5~-|
D-----------------------------|

-end-
just listen to the track.
comments:
myspace.com/thistimebothloversdie
friendster.com/paloypogi    

Added On December 16th, 2013

SHARE

Comments

blog comments powered by Disqus

ADVERTISEMENT