Zebrahead Tabs

Check

2 versions

TAB

            Check Tab by Zebrahead


Band:  Zebrahead
song:  Check
Album: Waste of Mind

Verse: Guitar 1
part 1        part 2&3
-15(bend)---:-------------:
------------:-------------:
------------:-------------:
------------:--5\4-4------:
------------:--5\4-4------:
------------:--3\2-2------:

Verse: Guitar 2 
part 2               part 3
----------:------------------------------|
-xxxx-xxxx:--------13xx13x1313/14--------|
-xxxx-xxxx:--------13xx13x1313/14--------|
-xxxx-xxxx:------------------------------|
----------:------------------------------|
----------:------------------------------|

Chorus: Both guitars
---------------------|
---------------------|
-----55-333----------|
-333-55-333----------|
-333-33-111----------|
-111-----------------|

Verse 2: Guitar 1
 part 1&2
--15(bend)---------|
-------------------|
-------------------|
-------------------|
-------------------|
-------------------|

Verse 2: Guitar 2
 part 1               part 2
-----------------:-------------------------|
-x-xx-xxx--------:--13xx13x1313/14---------|
-x-xx-xxx--------:--13xx13x1313/14---------|
-x-xx-xxx-4------:-------------------------|
----------4------:-------------------------|
----------2------:-------------------------|

Chorus

Bridge: Guitar 1
------------------------------------|
------------------------------------|
------------------------------------|
-2---2---2---2---2---2---2---2------|x2
-2---2---2---2---2---2---2---2------|
-0---0---0---0---0---0---0---0------|

Bridge: Guitar 2
--------------------------------------------------------------------------|
--------------------------------------------------------------------------|
--------------------------------------------------------------------------|
2--2--2--2--2--2--2--2----2--2------2--2-------2--2-------2--2------------|
2--2--2--2--2--2--2--2----2--2---3--2--2---3---2--2---3---2--2---3--------|
0--0--0--0--0--0--0--0----0--0-1--1-0--0-1---1-0--0-1---1-0--0-1---1------|


Solo: Guitar 2
---------9-9-9-9-7---------12-12-12-12-12----------9-9-9-9-7-|
-----7-7-9-9-9-9-7-----7-7-12-12-12-12-12------7-7-9-9-9-9-7-|
-7h9-7-7-----------7h9-7-7-12-12-12-12-12--7h9-7-7-----------|
-7h9---------------7h9---------------------7h9---------------|
-------------------------------------------------------------|
-------------------------------------------------------------|

-10-10-10-10-10-10-10-10-:--------------|
-10-10-10-10-10-10-10-10-:--------------|
-------------------------:--------------|
-------------------------:-2-2--2-2-----|
-------------------------:-2-2--2-2-----|
-------------------------:-0-0--0-0-----|

Solo: Guitar 1
--19-xx-19-xx-19----------------|
--------------------------------|
--------------------------------|
------------------2-2--2-2------|
------------------2-2--2-2------|
------------------0-0--0-0------|

Chorus

Verse 2

Chorus

Bridge

Chorus

-----------------|
-----------------|
-----------------|
--3--------------|
--3--------------|
--1--------------|    

Added On December 16th, 2013

SHARE

Comments

blog comments powered by Disqus

VERSIONS

ADVERTISEMENT