Zebrahead Tabs

Ghostbusterspunk Cover

1 versions

TAB

            Ghostbusterspunk Cover Tab by Zebrahead


I always loved playing this song I always found it fun to play

standard tuning


intro
E------------------------------------------------------------------------|
B------------------------------------------------------------------------|
G------------------------------------------------------------------------|
D--76767676767676767676767676767676767676767676767676767676767676767-----|
A------------------------------------------------------------------------|
E------------------------------------------------------------------------|


MAIN PART
E----XXXX----XX--------XXXX-----------------|
B----XXXX----XX--------XXXX-----------------|
G----XXXX--14XX--------XXXX---1414----------|
D--99XXXX--14XX14----99XXXX---1414-14-------|
A--99XXXX--12XX14----99XXXX---1212-14-------|
E--77XXXX----XX12----77XXXX--------12-------|

LEAD PART
E------------------------------------------------------------------------|
B------------------------------------------------------------------------|
G--------8---6--------------------8----6-----------6---------------------|
D---9-99---9---7--9999-7-9---9-99---9----7--9999-7---9-------------------|
A------------------------------------------------------------------------|
E------------------------------------------------------------------------|

COOL THING
E------------------------------------------------------------------------|
B------------------------------------------------------------------------|
G----7~----7~---7~----7~----7--------------------------------------------|
D-------9-----9----9-----9~----9--789------------------------------------|
A------------------------------------------------------------------------|
E------------------------------------------------------------------------|

HARMONIZE WITH COOL THING
E------------------------------------------------------------------------|
B------------------------------------------------------------------------|
G----11~----11~----11~----11~-----11-------------------------------------|
D--------12-----12-----12----12~------12--111112-------------------------|
A------------------------------------------------------------------------|
E------------------------------------------------------------------------|

SOLO THING
E------------------------------------------------------------------------|
B------------------------------------------------------------------------|
G----7~-6~------------------9~-------------------------------------------|
D----------7~-------9~--7~-----------------------------------------------|
A------------------------------------------------------------------------|
E------------------------------------------------------------------------|


JUST LISTEN TO THE SONG TO SEE WHEN TO PLAY EACH PART AND HOW BUT MOST PEOPLE SHOULD 
HOW THIS SONG GOES    

Added On December 16th, 2013

SHARE

Comments

blog comments powered by Disqus

ADVERTISEMENT