Zebrahead Tabs

Playmate Of The Year

4 versions

TAB

            Playmate Of The Year Tab by Zebrahead


Band:   Zebrahead
Song:   Playmate of the year
Album:  Playmate of the Year

Intro/verse: guitar 1
--------------------------------------------------|
--------------------------------------------------|
-13----13----16----16----14----14-----------------|
----14----14----14----14----14----14--16-13-14----|
--------------------------------------------------|
--------------------------------------------------|

Intro/verse: guitar 2
------------------------------|
------------------------------|
-----22--44444444-------------|
-22--22--44444444-------------|
-22--00--22222222-------------|
-00---------------------------|

intro/verse

Pre-chorus: guitar 2
----------------------------|
----------------------------|
----22-44444444-------------|
-22-22-44444444-------------|
-22-00-22222222-------------|
-00-------------------------|
       ___pm___

Chorus: both guitars
----------------------------------------------|
----------------------------------------------|
-99999999-------------------------------------|
-99999999-99999999-77777777-99999999----------|
-77777777-99999999-77777777-99999999----------|
----------77777777-55555555-77777777----------|

Chorus-ending:
-----------------------|
-----------------------|
-----------------------|
--77777777-9-----------|
--77777777-9-----------|
--55555555-7-----------|

Intro/verse

Bridge(rap part): guitar 1
--------------------------|
--------------------------|
--9-11-8-6/8-9-6-4--------|
--x-x--x-x/x-x-x-x--------|
--7-9--6-4/6-7-4-2--------|
--------------------------|

Intro/verse:

pre-chorus

chorus

Solo: guitar 1
-----------------------------------------------|
-9-9999--7-5-7-4--4-7-4-5-2--2-5-2-4-2-0-------|
-----------------------------------------------|
--------------------------------------------x2-|
-----------------------------------------------|
-----------------------------------------------|

Solo: guitar 2
---------------------------------------------------------------------------|
------------------------------------9-9999-7-5-7-4--4-7-4-5-2--2-5-2-4-2-0-|
99999999-------------------------------------------------------------------|
99999999-99999999-777777777-99999999---------------------------------------|
77777777-99999999-777777777-99999999---------------------------------------|
---------77777777-555555555-77777777---------------------------------------|

Intro/verse

pre-chorus

chorus

guitar 1 plays the intro with some sort of effect during the second round of "she moves me,"

Intro/verse    

Added On December 16th, 2013

SHARE

Comments

blog comments powered by Disqus

VERSIONS

ADVERTISEMENT