Zeke Tabs

10Th To The Riverside Blues

1 versions

TAB

            10th to the riverside blues


zeke


album: peter pan speedrock split EP


TRANSCRIBED BY RUDY GUZMAN


guzman_84@hotmail.com



1 step down
                        x4
eb:-----------------------|
Bb:-----------------------|
Gb:-----------------------|
Db:-7/9--9-9-9------------|
Ab:-5/7--7-7-7----5-------|
Eb:-------------7---7-5-3-|

eb:-----------------------------------|
Bb:-15bf------------------------------|
Gb:-14bf----12h14p12h14p12h1p12h14p12-|
Db:-----------------------------------|
Ab:-----------------------------------|
Eb:-----------------------------------|

   go back down, river south bound
eb:-----------------------|
Bb:-----------------------|
Gb:-----------------------|
Db:-7/9--9-9-9------------|
Ab:-5/7--7-7-7----5-------|
Eb:-------------7---7-5-3-|

   you take the high road
eb:--------------|
Bb:--------------|
Gb:--------------|
Db:--------------|
Ab:-5/7--7-7-7-7-|
Eb:-3/5--5-5-5-5-|

eb:-17bf------------------------------------------------|
Bb:-------17----15-17b~~~~--17-15-----------------------|
Gb:----------16-------------------16-14b----14b---------|
Db:--------------------------------------16-----16b~~~~-|
Ab:-----------------------------------------------------|
Eb:-----------------------------------------------------|

   like a drunken 10th to the riverside
eb:----------------------------------------------|
Bb:----------------------------------------------|
Gb:----------------------------------------------|
Db:----------------------------------------------|
Ab:-9--9-9-9-9-9-9-9--7--7-7-7-7-7--5--5-5-5-5-5-|
Eb:-7--7-7-7-7-7-7-7--5--5-5-5-5-5--3--3-3-3-3-3-|

   blues
eb:-----------------------|
Bb:-----------------------|
Gb:-----------------------|
Db:-7/9--9-9-9------------|
Ab:-5/7--7-7-7----5-------|
Eb:-------------7---7-5-3-|

    
eb:-----------------------|
Bb:-----------------------|
Gb:-----------------------|
Db:-7/9--9-9-9------------|
Ab:-5/7--7-7-7----5-------|
Eb:-------------7---7-5-3-|

   you take the high road
eb:--------------|
Bb:--------------|
Gb:--------------|
Db:--------------|
Ab:-5/7--7-7-7-7-|
Eb:-3/5--5-5-5-5-|

eb:----------------------------------------------------------------|
Bb:-15bf--17----15--17b~~~~--17-15h17p15---------------------------|
Gb:----------16--------------------------16-14h16p14----14-16b~~~~-|
Db:--------------------------------------------------15------------|
Ab:----------------------------------------------------------------|
Eb:----------------------------------------------------------------|

   like a drunken 10th to the riverside
eb:----------------------------------------------|
Bb:----------------------------------------------|
Gb:----------------------------------------------|
Db:----------------------------------------------|
Ab:-9--9-9-9-9-9-9-9--7--7-7-7-7-7--5--5-5-5-5-5-|
Eb:-7--7-7-7-7-7-7-7--5--5-5-5-5-5--3--3-3-3-3-3-|

   blues
eb:-----------------------|
Bb:-----------------------|
Gb:-----------------------|
Db:-7/9--9-9-9------------|
Ab:-5/7--7-7-7----5-------|
Eb:-------------7---7-5-3-|

    
eb:--------------------|
Bb:--------------0~~~~-|
Gb:--------------0~~~~-|
Db:-7/9--9-9-9---0~~~~-|
Ab:-5/7--7-7-7---------|
Eb:--------------------|

                                                                     1:11
eb:------------------------------------------------------------------------------|
Bb:-15bf---15-----------------------------------------------15bf--15-12h14p12----|
Gb:-14bf------14-12-14-12-----------------------------------------------------15-|
Db:-----------------------14-12-14~~~--12----------------------------------------|
Ab:---------------------------------------14-12----12-14-------------------------|
Eb:---------------------------------------------15-------------------------------|

                                                                     pick slide
eb:--------------------------12-15-12h14p12-------------------15bf---------------|
Bb:-12--------------------------------------15-12h14p12--------------x/----------|
Gb:----15-12h14p12----12h14-----------------------------14p12--------x/----------|
Db:----------------14------------------------------------------------x/----------|
Ab:------------------------------------------------------------------------------|
Eb:------------------------------------------------------------------------------|


eb:--------------------------------------------------------------------------------------|
Bb:--------------------------------------------------------------------------------------|
Gb:-15-15p12----15-15p12----15-15p12----15-15p12----15p12----15p12----15p12----12-14-14b-|
Db:----------14----------14----------14----------14-------14-------14-------14-----------|
Ab:--------------------------------------------------------------------------------------|
Eb:--------------------------------------------------------------------------------------|

eb:-15bf-----------------------------------------------------------------|
Bb:-------17----15-17bf~~~-17-14h16p14-----------------------------------|
Gb:----------16------------------------17-14h16p14-------------------16b-|
Db:------------------------------------------------16-14-16-14-----------|
Ab:------------------------------------------------------------16-14-----|
Eb:----------------------------------------------------------------------|


   like a drunken 10th to the riverside
eb:-------------------------------------------------|
Bb:-------------------------------------------------|
Gb:-------------------------------------------------|
Db:-------------------------------------------------|
Ab:-9--9-9-9-9-9-9-9--7--7-7-7-7-7--5--5-5-5-5-5--2-|
Eb:-7--7-7-7-7-7-7-7--5--5-5-5-5-5--3--3-3-3-3-3--0-|


eb:-------------------------------------|
Bb:-------------------------------------|
Gb:-------------------------------------|
Db:---------------------------5-5-------|
Ab:-----7p5-------------7p5-------7p5---|
Eb:-0-0-----7--3-5--0-0-----7---------7-|


   gt2 behind solo
eb:-------------------------------------|
Bb:-------------------------------------|
Gb:-------------------------------------|
Db:---------------------------5-5-------|
Ab:-----7p5-------------7p5-------7p5---|
Eb:-0-0-----7--3-5--0-0-----7---------7-|
   gt2
eb:---------------|
Bb:---------------|
Gb:---------------|
Db:---------------|
Ab:-5-5-5--7-7-7--|
Eb:-3-3-3--5-5-5--|

    
eb:-----------------------------------------------------------|
Bb:-14b-14b-14b-14b-14b-14b-14b-14b-14b-14b--14b-14-------14b-|
Gb:-14b-14b-14b-14b-14b-14b-14b-14b-14b-14b--14b-14-12-14-14b-|
Db:-----------------------------------------------------------|
Ab:-----------------------------------------------------------|
Eb:-----------------------------------------------------------|

eb:---------------|
Bb:---------------|
Gb:---------------|
Db:---------------|
Ab:-5-5-5--7-7-7--|
Eb:-3-3-3--5-5-5--|

eb:--------12------12-15b---------12------12-15b--12h15p12h15p12h15p12-|
Bb:-12b-12-----15b---------12b-12-----15b------------------------------|
Gb:-14b--------------------14b-----------------------------------------|
Db:--------------------------------------------------------------------|
Ab:--------------------------------------------------------------------|
Eb:--------------------------------------------------------------------|

eb:---------------|
Bb:---------------|
Gb:---------------|
Db:---------------|
Ab:-5-5-5--7-7-7--|
Eb:-3-3-3--5-5-5--|

eb:-----------------------------------------------------------|
Bb:-----------------------------------------------------------|
Gb:-7h9p7h9p7h9p7h9p7h9p7h9p7---------------------------------|
Db:----------------------------9p7---8--9p7---7b--------------|
Ab:--------------------------------9--------9-----9-7---7b----|
Eb:---------------------------------------------------9----9/-|

eb:---------------|
Bb:---------------|
Gb:---------------|
Db:---------------|
Ab:-5-5-5--7-7-7--|
Eb:-3-3-3--5-5-5--|

eb:------------------15b---/-------|
Bb:-12b---15b--/-----18b---/-------|
Gb:-14b---17b--/-------------------|
Db:--------------------------------|
Ab:--------------------------------|
Eb:--------------------------------|

eb:----------------------------------------|
Bb:----------------------------------------|
Gb:----------------------------------------|
Db:--9-9-9-9-9-9-9-9-9-9-9-9-9-9-9-9-9-9-9-|
Ab:--7-7-7-7-7-7-7-7-7-7-7-7-7-7-7-7-7-7-7-|
Eb:--0-0-0-0-0-0-0-0-0-0-0-0-0-0-0-0-0-0-0-|

eb:-------------|
Bb:-------------|
Gb:-12/---------|
Db:-12/---------|
Ab:-10/---------|
Eb:-0-----------|


hillo son mex

herson

20/02/17    

Added On February 21st, 2017

SHARE

Comments

blog comments powered by Disqus

ADVERTISEMENT