Zeke Tabs

Black Witch

1 versions

TAB

            black witch


zeke


album: dolphenwulf EP



TRANSCRIBED BY RUDY GUZMAN


guzman_84@hotmail.com



                                                                           x2
e:----------------------------------------------------------------------------|
B:----------------------------------------------------------------------------|
G:----------------------------------------------------------------------------|
D:----------------------------------------------------------------------------|
A:-3h5-5-5-5--3h5-5-5-5--3h5-5-5-5-------3h5-5-5-5--3h5-5-5-5--3h5-5-5-5--5-3-|
E:----------------------------------3p1-----------------------------------3-1-|

  if you can't decide about what...                                                         x2
e:---------------------------------------------------------------------------------------------|
B:---------------------------------------------------------------------------------------------|
G:---------------------------------------------------------------------------------------------|
D:---------------------------------------------------------------------------------------------|
A:-2----------------------------------------5-7--2-----------------------------------------7-5-|
E:-0--0-0-0-0-0-3p0-0-0-0-0-0-2p0-0-0-0-0-0-3-5--0--0-0-0-0-0-3p0-0-0-0-0-0-2p0-0-0-0-0-0--5-3-|


  gt1
e:-------------------------------|
B:--5b--4b--2b----5b--7b--10b~~~-|
G:--7b--6b--4b----7b--9b--12b~~~-|
D:-------------------------------|
A:-------------------------------|
E:-------------------------------|
  gt2
e:----------------------------------------------------------------------------|
B:----------------------------------------------------------------------------|
G:----------------------------------------------------------------------------|
D:----------------------------------------------------------------------------|
A:-3h5-5-5-5--3h5-5-5-5--3h5-5-5-5-------3h5-5-5-5--3h5-5-5-5--3h5-5-5-5--5-3-|
E:----------------------------------3p1-----------------------------------3-1-|


  verse                                                                                      x2
e:---------------------------------------------------------------------------------------------|
B:---------------------------------------------------------------------------------------------|
G:---------------------------------------------------------------------------------------------|
D:---------------------------------------------------------------------------------------------|
A:-2----------------------------------------5-7--2-----------------------------------------7-5-|
E:-0--0-0-0-0-0-3p0-0-0-0-0-0-2p0-0-0-0-0-0-3-5--0--0-0-0-0-0-3p0-0-0-0-0-0-2p0-0-0-0-0-0--5-3-|

   gt1
e:-------------------------------|
B:--5b--4b--2b----5b--7b--10b~~~-|
G:--7b--6b--4b----7b--9b--12b~~~-|
D:-------------------------------|
A:-------------------------------|
E:-------------------------------|
   gt2
e:----------------------------------------------------------------------------|
B:----------------------------------------------------------------------------|
G:----------------------------------------------------------------------------|
D:----------------------------------------------------------------------------|
A:-3h5-5-5-5--3h5-5-5-5--3h5-5-5-5-------3h5-5-5-5--3h5-5-5-5--3h5-5-5-5--5-3-|
E:----------------------------------3p1-----------------------------------3-1-|

e:------|
B:------|
G:------|
D:------|
A:-2-2--|
E:-0-0--|

solo
e:-----------------------------------------------------------------------|
B:------------------------------------------0--12b--15--12---------------|
G:------------------------------------------0--12b----------14p12--------|
D:--------------10h12p10h12p10h12p10--------0----------------------14~~~-|
A:-/10-12-10-12----------------------12p10-------------------------------|
E:-----------------------------------------------------------------------|

e:----------------------------------------------------------|
B:----------------------------------------------------------|
G:-12bf-10h12p10----10-12-10-----12bf-10h12p10-----10-12-10-|
D:---------------12----------12-----------------12----------|
A:----------------------------------------------------------|
E:----------------------------------------------------------|

e:------------------------------------------------------------------------------|
B:-13bf--10h13p10----10h13p10----10h13p10------------------------------------13-|
G:----------------12----------12----------12--10h12p10----10h12p10----10-12b-12-|
D:-----------------------------------------------------12----------12-----------|
A:------------------------------------------------------------------------------|
E:------------------------------------------------------------------------------|

e:-------------------------------------------------|
B:-0--12b-12b-12b-12b-12b-12b--15b-15b-15b-15b-15--|
G:-0--12b-12b-12b-12b-12b-12b--14b-14b-14b-14b-14b-|
D:-------------------------------------------------|
A:-------------------------------------------------|
E:-------------------------------------------------|

  verse                                                               
e:---------------------------------------------------------------------------------------------|
B:---------------------------------------------------------------------------------------------|
G:---------------------------------------------------------------------------------------------|
D:---------------------------------------------------------------------------------------------|
A:-2----------------------------------------5-7--2-----------------------------------------7-5-|
E:-0--0-0-0-0-0-3p0-0-0-0-0-0-2p0-0-0-0-0-0-3-5--0--0-0-0-0-0-3p0-0-0-0-0-0-2p0-0-0-0-0-0--5-3-|

e:--------------------------------------------------------------------------------|
B:--------------------------------------------------------------------------------|
G:--------------------------------------------------------------------------------|
D:--------------------------------------------------------------------------------|
A:-2----------------------------------------5-7--2--------------------------------|
E:-0--0-0-0-0-0-3p0-0-0-0-0-0-2p0-0-0-0-0-0-3-5--0--0-0-0-0-0-3p0-0-0-0-0-0-2p0-0-|

              
e:------------------------------------------|
B:------------------------------------------|
G:------------------------------------------|
D:------------------------------------------|
A:-2-2-2-2-------2-2-2-2-------2-2-2-2------|
E:-0-0-0-0--3p0--0-0-0-0--1p0--0-0-0-0--3p0-|

                                            x4 
e:--------------------------------------------|
B:--------------------------------------------|
G:--------------------------------------------|
D:--------------------------------------------|
A:----------------------------------------5-3-|
E:-0--0-0--1h3--0--0-0--1h3--0--0-0--1h3--3-1-|

e:------------------------------------------|
B:------------------------------------------|
G:------------------------------------------|
D:------------------------------------------|
A:-2--2-2-2-2-2-2-2-2-2-2-2-2-2-2-2-2-2-2-2-|
E:-0--0-0-0-0-0-0-0-0-0-0-0-0-0-0-0-0-0-0-0-|

e:-------------------------------------------------|
B:-------------------------------------------------|
G:-7/----------------------------------------------|
D:-7/----------------------------------------------|
A:-5/----------------------------------------------|
E:-------------------------------------------------|



hillo son mex

18/02/17    

Added On February 19th, 2017

SHARE

Comments

blog comments powered by Disqus

ADVERTISEMENT