Zeke Tabs

Chinatown

1 versions

TAB

            chinatown


zeke


TRANSCRIBED BY RUDY GUZMAN


guzman_84@hotmail.com

                                                        x2
e:---------------------------------------------------------|
B:---------------------------------------------------------|
G:---------------------------------------------------------|
D:-4/6--6-6-6-6--4/6--6-6-6-6--4/6--6-6-6-6----------------|
A:-2/4--4-4-4-4--2/4--4-4-4-4--2/4--4-4-4-4----------2-1p0-|
E:-------------------------------------------0-1h2h3-------|

   being down all my life never seem to win
e:---------------------------------------------------------|
B:---------------------------------------------------------|
G:---------------------------------------------------------|
D:-4/6--6-6-6-6--4/6--6-6-6-6--4/6--6-6-6-6----------------|
A:-2/4--4-4-4-4--2/4--4-4-4-4--2/4--4-4-4-4----------2-1p0-|
E:-------------------------------------------0-1h2h3-------|

   i`ve been in phantom grace at the needles in
e:---------------------------------------------------------|
B:---------------------------------------------------------|
G:---------------------------------------------------------|
D:-4/6--6-6-6-6--4/6--6-6-6-6--4/6--6-6-6-6----------------|
A:-2/4--4-4-4-4--2/4--4-4-4-4--2/4--4-4-4-4----------2-1p0-|
E:-------------------------------------------0-1h2h3-------|

   and glock right stand everybodys going down and out
e:-------------------------------------------------|
B:-------------------------------------------------|
G:-------------------------------------------------|
D:-------------------------------------------------|
A:-2-4-4-4-4-4--2-4-4-4-4-4------------------------|
E:-0-2-2-2-2-2--0-2-2-2-2-2------------------------|

   no way to live my life going back back to the chinatown
e:---------------------------------------------------|
B:---------------------------------------------------|
G:---------------------------------------------------|
D:-4/6--6-6-6-6--4/6--6-6-6--------------------------|
A:-2/4--4-4-4-4--2/4--4-4-4--5-4---------------2-1p0-|
E:---------------------------3-2-------0-1h2h3-------|

                              back to the chinatown      x2
e:---------------------------------------------------------|
B:---------------------------------------------------------|
G:---------------------------------------------------------|
D:-4/6--6-6-6-6--4/6--6-6-6-6--4/6--6-6-6-6----------------|
A:-2/4--4-4-4-4--2/4--4-4-4-4--2/4--4-4-4-4----------2-1p0-|
E:-------------------------------------------0-1h2h3-------|

  find a way to turn it around to the way i`ve been                                                      
e:---------------------------------------------------------|
B:---------------------------------------------------------|
G:---------------------------------------------------------|
D:-4/6--6-6-6-6--4/6--6-6-6-6--4/6--6-6-6-6----------------|
A:-2/4--4-4-4-4--2/4--4-4-4-4--2/4--4-4-4-4----------2-1p0-|
E:-------------------------------------------0-1h2h3-------|

   like an angry from the city at the needles in
e:---------------------------------------------------------|
B:---------------------------------------------------------|
G:---------------------------------------------------------|
D:-4/6--6-6-6-6--4/6--6-6-6-6--4/6--6-6-6-6----------------|
A:-2/4--4-4-4-4--2/4--4-4-4-4--2/4--4-4-4-4----------2-1p0-|
E:-------------------------------------------0-1h2h3-------|

   and glock right stand everybodys going down and out
e:-------------------------------------------------|
B:-------------------------------------------------|
G:-------------------------------------------------|
D:-------------------------------------------------|
A:-2-4-4-4-4-4--2-4-4-4-4-4------------------------|
E:-0-2-2-2-2-2--0-2-2-2-2-2------------------------|

   no way to live my life going back back to the chinatown
e:---------------------------------------------------|
B:---------------------------------------------------|
G:---------------------------------------------------|
D:-4/6--6-6-6-6--4/6--6-6-6--------------------------|
A:-2/4--4-4-4-4--2/4--4-4-4--5-4---------------2-1p0-|
E:---------------------------3-2-------0-1h2h3-------|

  solo
e:------------------------------------------------------------------------------------------|
B:-11h12-12-12-12-12-12--11h12-12-12-12--11h12-12-12-12--11h12-12--12-12--11-11--10-10--9-9-|
G:-11----11-11-11-11-11--11----11-11-11--11----11-11-11--11----11--11-11--10-10--9--9---8-8-|
D:------------------------------------------------------------------------------------------|
A:------------------------------------------------------------------------------------------|
E:------------------------------------------------------------------------------------------|

e:-----10-----------10-----------10---------------------------------------------------|
B:-12b----12p9--12b----12p9--12b----12p9-----9h12-----9h12----9h12----9h12------------|
G:----------------------------------------11-------11------11-------11------11-9-11-9-|
D:------------------------------------------------------------------------------------|
A:------------------------------------------------------------------------------------|
E:------------------------------------------------------------------------------------|

e:---------------9-|
B:---------------9-|
G:----9h11--11bf---|
D:-11--------------|
A:-----------------|
E:-----------------|

   and glock right stand everybodys going down and out
e:-------------------------------------------------|
B:-------------------------------------------------|
G:-------------------------------------------------|
D:-------------------------------------------------|
A:-2-4-4-4-4-4--2-4-4-4-4-4------------------------|
E:-0-2-2-2-2-2--0-2-2-2-2-2------------------------|

   no way to live my life going back back to the chinatown
e:---------------------------------------------------|
B:---------------------------------------------------|
G:---------------------------------------------------|
D:-4/6--6-6-6-6--4/6--6-6-6--------------------------|
A:-2/4--4-4-4-4--2/4--4-4-4--5-4---------------2-1p0-|
E:---------------------------3-2-------0-1h2h3-------|

                              back to the chinatown      
e:---------------------------------------------------------|
B:---------------------------------------------------------|
G:---------------------------------------------------------|
D:-4/6--6-6-6-6--4/6--6-6-6-6--4/6--6-6-6-6----------------|
A:-2/4--4-4-4-4--2/4--4-4-4-4--2/4--4-4-4-4----------2-1p0-|
E:-------------------------------------------0-1h2h3-------|

e:---------------------------------------------------|
B:---------------------------------------------------|
G:---------------------------------------------------|
D:-4/6--6-6-6-6--4/6--6-6-6--------------------------|
A:-2/4--4-4-4-4--2/4--4-4-4--5-4---2-----------2-1p0-|
E:---------------------------3-2---0---0-1h2h3-------|

e:---------------------|
B:---------------------|
G:---------------------|
D:-4/6--6-6--4/6--6-6--|
A:-2/4--4-4--2/4--4-4--|
E:---------------------|



hillo son mex

26/02/17    

Added On February 27th, 2017

SHARE

Comments

blog comments powered by Disqus

ADVERTISEMENT