Zeke Tabs

Devils Island

1 versions

TAB

            Devils Island 



zeke



album: 'til the livin' end



transcribed by Rudy Guzman



guzman_84@hotmail.com



tune 2 steps down
       
 
                           x3
Eb|-------------------------|
Bb|----5---5---------5-6~~~-|
F#|--5---7---5h7p5-5-5------|
C#|--7---7---7-----7--------|
G#|--0---0---0-----0--------|
C#|-------------------------|


Eb|------|
Bb|------|
F#|------|
C#|------|
G#|-10/7-|
C#|-8-/5-|

   all the way to the top to where the next step stops shadow sick out of town into the 
Eb|-----------|
Bb|-----------|
F#|-----------|
C#|-----------|
G#|--10-10--7-|
C#|--8--8---5-|

   very depth of darkness
pick slide
Eb|------------------------------|
Bb|------------------------------|
F#|------------------------------|
C#|------------------------------|
G#|-x/---------------------------|
C#|-x/---------------------------|

Eb|-------------------------|
Bb|-------------------------|
F#|-------------------------|
C#|-10-10-------------------|
G#|-8--8---10-10--7-7-7-7-7-|
C#|--------8--8---5-5-5-5-5-|

    on the devils island
Eb|-------------------------|
Bb|-------------------------|
F#|-------------------------|
C#|-10-10-------------------|
G#|-8--8---10-10--7-7-7-7-7-|
C#|--------8--8---5-5-5-5-5-|

   yeah im on the devil island
Eb|-------------------------------------|
Bb|-------------------------------------|
F#|-------------------------------------|
C#|-10-10-10-10-10-10-10--9-9-9-9-9-9-9-|
G#|-8--8--8--8--8--8--8---7-7-7-7-7-7-7-|
C#|-------------------------------------|

                           x3
Eb|-------------------------|
Bb|----5---5---------5-6~~~-|
F#|--5---7---5h7p5-5-5------|
C#|--7---7---7-----7--------|
G#|--0---0---0-----0--------|
C#|-------------------------|


Eb|------|
Bb|------|
F#|------|
C#|------|
G#|-10/7-|
C#|-8-/5-|

   ship the fools on the edge now they have all gone insane they were fired you`ll get burn
   into the
Eb|-----------|
Bb|-----------|
F#|-----------|
C#|-----------|
G#|--10-10--7-|
C#|--8--8---5-|

   very depth of darkness
pick slide
Eb|------------------------------|
Bb|------------------------------|
F#|------------------------------|
C#|------------------------------|
G#|-x/---------------------------|
C#|-x/---------------------------|

Eb|-------------------------|
Bb|-------------------------|
F#|-------------------------|
C#|-10-10-------------------|
G#|-8--8---10-10--7-7-7-7-7-|
C#|--------8--8---5-5-5-5-5-|

    on the devils island
Eb|-------------------------|
Bb|-------------------------|
F#|-------------------------|
C#|-10-10-------------------|
G#|-8--8---10-10--7-7-7-7-7-|
C#|--------8--8---5-5-5-5-5-|

   yeah im on the devil island
Eb|-------------------------------------|
Bb|-------------------------------------|
F#|-------------------------------------|
C#|-10-10-10-10-10-10-10--9-9-9-9-9-9-9-|
G#|-8--8--8--8--8--8--8---7-7-7-7-7-7-7-|
C#|-------------------------------------|

                           x2
Eb|-------------------------|
Bb|----5---5---------5-6~~~-|
F#|--5---7---5h7p5-5-5------|
C#|--7---7---7-----7--------|
G#|--0---0---0-----0--------|
C#|-------------------------|

Eb|-------------------------|
Bb|----5---5---------5-6~~~-|
F#|--5---7---5h7p5-5-5------|
C#|--7---7---7-----7--------|
G#|--5---5---5-----5--------|
C#|-------------------------|

Eb|-------------------------|
Bb|----5---5---------5-6~~~-|
F#|--5---7---5h7p5-5-5------|
C#|--7---7---7-----7--------|
G#|--7---7---7-----7--------|
C#|-------------------------|

solo
Eb|-----------------------------------------12--15-12h14p12--------------------------------------|
Bb|--------------------------------------15-----------------15-12h14p12--------------------------|
F#|-/14-14-14-14-14-14-14-14-14-14~~~~-----------------------------------15-12h14p12-------------|
C#|----------------------------------------------------------------------------------14-12h14p12-|
G#|----------------------------------------------------------------------------------------------|
C#|----------------------------------------------------------------------------------------------|

Eb|--------------------------------------------------------------|
Bb|--------------------------------------------------------------|
F#|-------------------------------------------14-12--------------|
C#|----------------------------12-14b~~~~--12-------14p12-14~~~~-|
G#|-14-12h14p12----------12-14-----------------------------------|
C#|-------------15-12-15-----------------------------------------|

Eb|----------17-19-18-17h18p17---------------------------------------------|
Bb|--20b-20b-------------------20-17-19-17---------------------------------|
F#|----------------------------------------20-17-19-17----17-19-17-19-19bf-|
C#|----------------------------------------------------19------------------|
G#|------------------------------------------------------------------------|
C#|------------------------------------------------------------------------|


   all the way to the top to where the next step stops ship for fools on the edge into the 
Eb|-----------|
Bb|-----------|
F#|-----------|
C#|-----------|
G#|--10-10--7-|
C#|--8--8---5-|

   very depth pof darkness
pick slide
Eb|------------------------------|
Bb|------------------------------|
F#|------------------------------|
C#|------------------------------|
G#|-x/---------------------------|
C#|-x/---------------------------|

Eb|-------------------------|
Bb|-------------------------|
F#|-------------------------|
C#|-10-10-------------------|
G#|-8--8---10-10--7-7-7-7-7-|
C#|--------8--8---5-5-5-5-5-|

    on the devils island
Eb|-------------------------|
Bb|-------------------------|
F#|-------------------------|
C#|-10-10-------------------|
G#|-8--8---10-10--7-7-7-7-7-|
C#|--------8--8---5-5-5-5-5-|

   yeah im on the devil island
Eb|-------------------------------------|
Bb|-------------------------------------|
F#|-------------------------------------|
C#|-10-10-10-10-10-10-10--9-9-9-9-9-9-9-|
G#|-8--8--8--8--8--8--8---7-7-7-7-7-7-7-|
C#|-------------------------------------|

   on the devils island    x3
Eb|--------------------------|
Bb|--------------------------|
F#|--------------------------|
C#|--------------------------|
G#|-3-3---5-5---7--7-7-7-7-7-|
C#|-1-1---3-3---5--5-5-5-5-5-|

Eb|-------------------|
Bb|-------------------|
F#|-------------------|
C#|-------------------|
G#|-3-3-3--5-5-5--7---|
C#|-1-1-1--3-3-3--5---|




hillo son mex

originally tabbed in 2005

20/02/17    

Added On February 21st, 2017

SHARE

Comments

blog comments powered by Disqus

ADVERTISEMENT