Zeke Tabs

Dolphenwulf

1 versions

TAB

            dolphenwulf


zeke


album: `til the livin` end


TRANSCRIBED BY RUDY GUZMAN


guzman_84@hotmail.com



1 step down

eb:------------------------------------------------------------------------------|
Bb:------------------------------------------------------------------------------|
Gb:------------------------------------------------------------------------------|
Db:-------------------------7--------------------------5--5-5-5-5-5-5-5--------5-|
Ab:-7--7-7-7-7-7-7--7-7-7-7---10--7-5-7--7-7-7-7-7--5--3--3-3-3-3-3-3-3----5h7---|
Eb:-0--0-0-0-0-0-0--0-0-0-0---0---0-0-0--0-0-0-0-0--0--------------------7-------|


  verse                               x3
eb:--------------------------------------|
Bb:--------------------------------------|
Gb:--------------------------------------|
Db:-9-9-9-9-9-9-9--5--7-7-7-7-7--------5-|
Ab:-7-7-7-7-7-7-7--3--5-5-5-5-5----5h7---|
Eb:-0-0-0-0-0-0-0----------------7-------|

eb:-------------------------------------------------------------------------|
Bb:-------------------------------------------------------------------------|
Gb:---14-14-12---------------------------14-14-12---------------------------|
Db:---14-14-12---------------------------14-14-12-----5--5-5-5-5-5--------5-|
Ab:-------------------5-7----------5------------------3--3-3-3-3-3----5-7---|
Eb:-0----------0-0--7-----5--5-5h7----0------------0----------------7-------|


 and only the strong would survive at least thats what we both did told ya
 but we never had that honey only lies on the...
eb:--------------------------------------|
Bb:--------------------------------------|
Gb:--------------------------------------|
Db:-9-9-9-9-9-9-9--5--7-7-7-7-7--------5-|
Ab:-7-7-7-7-7-7-7--3--5-5-5-5-5----5-6---|
Eb:-0-0-0-0-0-0-0----------------7-------|


:---------------------------------------------------------|
:---------------------------------------------------------|
:--------------------------------9bp7----9-9-9-7----------|
:------------------7--9-9-9-9-9-------9-----------9-9~~~--|
:-9--9-9-9-9--7-9--5--7-7-7-7-7---------------------------|
:-7--7-7-7-7--5-7-----------------------------------------|

eb:-------------------------------------------------------------------------|
Bb:-------------------------------------------------------------------------|
Gb:---14-14-12---------------------------14-14-12---------------------------|
Db:---14-14-12---------------------------14-14-12-----5--5-5-5-5-5--------5-|
Ab:-------------------5-7----------5------------------3--3-3-3-3-3----5-7---|
Eb:-0----------0-0--7-----5--5-5h7----0------------0----------------7-------|

eb:------------------------------------------------------------------------------|
Bb:------------------------------------------------------------------------------|
Gb:------------------------------------------------------------------------------|
Db:-------------------------7--------------------------5--5-5-5-5-5-5-5--------5-|
Ab:-7--7-7-7-7-7-7--7-7-7-7---10--7-5-7--7-7-7-7-7--5--3--3-3-3-3-3-3-3----5h7---|
Eb:-0--0-0-0-0-0-0--0-0-0-0---0---0-0-0--0-0-0-0-0--0--------------------7-------|


solo
eb:-----------------------------------------------------------|
Bb:-18b-18b-18b-18b-18b-18b-18b---18b-------------------------|
Gb:-20b-20b-20b-20b-20b-20b-20b---20b--18-20-18---------------|
Db:---------------------------------------------20-18-20~~~~--|
Ab:-----------------------------------------------------------|
Eb:-----------------------------------------------------------|

eb:----------12------------------------------------------|
Bb:-------12----12-15--12h15p12--------------------------|
Gb:-14bf------------------------14-14p12-----12-14b~~~~--|
Db:---------------------------------------14-------------|
Ab:------------------------------------------------------|
Eb:------------------------------------------------------|

eb:-----12-----------------12-15p12-14p12---------15bf-|
Bb:-15b----15p12-15p12---------------------15p12-------|
Gb:--------------------14------------------------------|
Db:----------------------------------------------------|
Ab:----------------------------------------------------|
Eb:----------------------------------------------------|

eb:-------------------------------------------------------------|
Bb:-------------------------------------------------------------|
Gb:-/9~~~~---7-9-9bf-9p7---7--6---7-9-7---4h6p4h6p4h6p4--4~~~~--|
Db:----------------------9------9-------------------------------|
Ab:-------------------------------------------------------------|
Eb:-------------------------------------------------------------|

eb:-----12----------------------------12---------------------------------------|
Bb:-12b-----15-12---------------15bf-----15p12-----12h15p12-------12-----------|
Gb:-14b------------14-14b~~~~-------------------14-----------14b------14p12----|
Db:-------------------------------------------------------------------------14-|
Ab:----------------------------------------------------------------------------|
Eb:----------------------------------------------------------------------------|

:----------------------------|
:----------------------------|
:-12h14p12-----12h14-14~~~~--|
:----------14----------------|
:----------------------------|
:----------------------------|

hillo son mex

herson

08/05/05    

Added On February 18th, 2017

SHARE

Comments

blog comments powered by Disqus

ADVERTISEMENT