Zeke Tabs

God Of Gsxr

1 versions

TAB

            god of gsxr


zeke


TRANSCRIBED BY RUDY GUZMAN


guzman_84@hotmail.com



eb:------------------------------------------------|
Bb:------------------------------------------------|
Gb:------------------------------------------------|
Db:-4-4-4-4-4--7-7--4-4-4-4-4--7-7--4-4-4-4-4--7-7-|
Ab:-2-2-2-2-2--5-5--2-2-2-2-2--5-5--2-2-2-2-2--5-5-|
Eb:------------------------------------------------|

           waahhh oh
eb:-----------------|
Bb:-----------------|
Gb:-----------------|
Db:-4-4-4-4-4--7-7--|
Ab:-2-2-2-2-2--5-5--|
Eb:-----------------|

   nearby is where through the end over on the cast
eb:------------------------------------------|
Bb:------------------------------------------|
Gb:------------------------------------------|
Db:------------------------------------------|
Ab:-2-2-2-2-2-2-2-2--7--5--2-2-2-2-2-2--7--5-|
Eb:-0-0-0-0-0-0-0-0--5--3--0-0-0-0-0-0--5--3-|

   get it on total never in
eb:---------------------------------------|
Bb:---------------------------------------|
Gb:---------------------------------------|
Db:---------------------------------------|
Ab:-2-2-2-2-2-2-2-2--7--5--7-7-7-7-7-7--8-|
Eb:-0-0-0-0-0-0-0-0--5--3--5-5-5-5-5-5--6-|

   dead diferent again total white thrash
eb:------------------------------------------|
Bb:------------------------------------------|
Gb:------------------------------------------|
Db:------------------------------------------|
Ab:-2-2-2-2-2-2-2-2--7--5--2-2-2-2-2-2--7--5-|
Eb:-0-0-0-0-0-0-0-0--5--3--0-0-0-0-0-0--5--3-|

   get it on never let em back
eb:---------------------------------------|
Bb:---------------------------------------|
Gb:---------------------------------------|
Db:---------------------------------------|
Ab:-2-2-2-2-2-2-2-2--7--5--7-7-7-7-7-7--8-|
Eb:-0-0-0-0-0-0-0-0--5--3--5-5-5-5-5-5--6-|

    god of gsxr    god of gsxr         of gsxr
eb:---------------------------------------------|
Bb:---------------------------------------------|
Gb:---------------------------------------------|
Db:---------------------------------------------|
Ab:-2-2----7-7-7--2-2----7-7-7--2-2----8-7-5--2-|
Eb:-0-0-0--5-5-5--0-0-0--5-5-5--0-0-0--6-5-3--0-|


eb:------------------------------------------------|
Bb:------------------------------------------------|
Gb:------------------------------------------------|
Db:-4-4-4-4-4--7-7--4-4-4-4-4--7-7--4-4-4-4-4--7-7-|
Ab:-2-2-2-2-2--5-5--2-2-2-2-2--5-5--2-2-2-2-2--5-5-|
Eb:------------------------------------------------|

             yeah
eb:-----------------|
Bb:-----------------|
Gb:-----------------|
Db:-4-4-4-4-4--7-7--|
Ab:-2-2-2-2-2--5-5--|
Eb:-----------------|

   who wants to street behind the man be the damn dog
eb:------------------------------------------|
Bb:------------------------------------------|
Gb:------------------------------------------|
Db:------------------------------------------|
Ab:-2-2-2-2-2-2-2-2--7--5--2-2-2-2-2-2--7--5-|
Eb:-0-0-0-0-0-0-0-0--5--3--0-0-0-0-0-0--5--3-|

   everybody totally destroy   
eb:---------------------------------------|
Bb:---------------------------------------|
Gb:---------------------------------------|
Db:---------------------------------------|
Ab:-2-2-2-2-2-2-2-2--7--5--7-7-7-7-7-7--8-|
Eb:-0-0-0-0-0-0-0-0--5--3--5-5-5-5-5-5--6-|

   dead diferent again total white thrash
eb:------------------------------------------|
Bb:------------------------------------------|
Gb:------------------------------------------|
Db:------------------------------------------|
Ab:-2-2-2-2-2-2-2-2--7--5--2-2-2-2-2-2--7--5-|
Eb:-0-0-0-0-0-0-0-0--5--3--0-0-0-0-0-0--5--3-|

   get it on never let em in
eb:---------------------------------------|
Bb:---------------------------------------|
Gb:---------------------------------------|
Db:---------------------------------------|
Ab:-2-2-2-2-2-2-2-2--7--5--7-7-7-7-7-7--8-|
Eb:-0-0-0-0-0-0-0-0--5--3--5-5-5-5-5-5--6-|

    god of gsxr    god of gsxr         of gsxr
eb:---------------------------------------------|
Bb:---------------------------------------------|
Gb:---------------------------------------------|
Db:---------------------------------------------|
Ab:-2-2----7-7-7--2-2----7-7-7--2-2----8-7-5--2-|
Eb:-0-0-0--5-5-5--0-0-0--5-5-5--0-0-0--6-5-3--0-|






hillo son mex

herson

mxtabs.net

tabbed in 2002

retabbed 26/02/17    

Added On February 27th, 2017

SHARE

Comments

blog comments powered by Disqus

ADVERTISEMENT