Zeke Tabs

Highway Star

1 versions

TAB

            highway star


zeke


TRANSCRIBED BY RUDY GUZMAN


guzman_84@hotmail.com

eb:---------------------------------------------------------------|
Bb:---------------------------------------------------------------|
Gb:-----------999999999-------------12-12-12-12-12-12-12--9-9-9-9-|
Db:-99999999--999999999--999999999--12-12-12-12-12-12-12--9-9-9-9-|
Ab:-99999999--777777777--999999999--10-10-10-10-10-10-10--7-7-7-7-|
Eb:-77777777-------------777777777--------------------------------|

eb:---------------------------------------------------------------|
Bb:---------------------------------------------------------------|
Gb:-----------999999999-------------12-12-12-12-12-12-12--9-9-9-9-|
Db:-99999999--999999999--999999999--12-12-12-12-12-12-12--9-9-9-9-|
Ab:-99999999--777777777--999999999--10-10-10-10-10-10-10--7-7-7-7-|
Eb:-77777777-------------777777777--------------------------------|

verse
eb:---------------------------------------------------------------|
Bb:---------------------------------------------------------------|
Gb:-----------999999999-------------12-12-12-12-12-12-12--9-9-9-9-|
Db:-99999999--999999999--999999999--12-12-12-12-12-12-12--9-9-9-9-|
Ab:-99999999--777777777--999999999--10-10-10-10-10-10-10--7-7-7-7-|
Eb:-77777777-------------777777777--------------------------------|


 wohhhh ohhh ohh on the highway 
eb:-------------------------|
Bb:-------------------------|
Gb:------12-12--7-7---------|
Db:-9-9--12-12--7-7---7-7-7-|
Ab:-9-9--10-10--5-5---7-7-7-|
Eb:-7-7---------------5-5-5-|


:----------------------------------|
:----------------------------------|
:------------------------9-9-9-9-9-|
:-9-9-x--9-9-9-x-9-9-9-x-9-9-9-9-9-|
:-9-9-x--9-9-9-x-9-9-9-x-7-7-7-7-7-|
:-7-7-x--7-7-7-x-7-7-7-x-----------|
     

:---------------------------------------------------------|
:--7---7-9b~~-9-7-9--7-9b~~-9-7-9--7-9b~~-9-7-9b~~-9-7--9-|
:--7---7-9b~~-9-7-9--7-9b~~-9-7-9--7-9b~~-9-7-9b~~-9-7--9-|
:----9----------------------------------------------------|
:---------------------------------------------------------|
:---------------------------------------------------------|



solo
:-----7----------------------------------------------------------7---7---7-|
:-10b---10p7-7h9p7----7h9p7----7h8p7---------------------------7---7---7---|
:------------------10-------10-------10-7h9p7---7----7-9-7--9b-------------|
:---------------------------------------------9---9------------------------|
:--------------------------------------------------------------------------|
:--------------------------------------------------------------------------|

verse
eb:---------------------------------------------------------------|
Bb:---------------------------------------------------------------|
Gb:-----------999999999-------------12-12-12-12-12-12-12--9-9-9-9-|
Db:-99999999--999999999--999999999--12-12-12-12-12-12-12--9-9-9-9-|
Ab:-99999999--777777777--999999999--10-10-10-10-10-10-10--7-7-7-7-|
Eb:-77777777-------------777777777--------------------------------|


 wohhhh ohhh ohh on the highway 
eb:-------------------------|
Bb:-------------------------|
Gb:------12-12--7-7---------|
Db:-9-9--12-12--7-7---7-7-7-|
Ab:-9-9--10-10--5-5---7-7-7-|
Eb:-7-7---------------5-5-5-|


:----------------------------------|
:----------------------------------|
:------------------------9-9-9-9-9-|
:-9-9-x--9-9-9-x-9-9-9-x-9-9-9-9-9-|
:-9-9-x--9-9-9-x-9-9-9-x-7-7-7-7-7-|
:-7-7-x--7-7-7-x-7-7-7-x-----------|

:----------|
:----------|
:----------|
:-9--------|
:-9--------|
:-7--------|
     

hillo son mex

tabbed in 2003

21/02/17    

Added On February 22nd, 2017

SHARE

Comments

blog comments powered by Disqus

ADVERTISEMENT