Zeke Tabs

Kill The King

1 versions

TAB

            First part
e|---------------|----------------||
B|---------------|----------------||
G|-2---------5---|-2------------o-||
D|-2-----3---5---|-2-----3---0--o-||
A|-------3-------|-------3---0----||
D|---------------|----------------||x4

Punk part
e|-----------------|-----------------||---------------------||
B|-----------------|-----------------||---------------------||
G|-2-0-2---5-5-0-2-|---0-2---5-5-0-2-||-o---0-2---5-5-0-2-o-||
D|-2-0-2---5-5-0-2-|---0-2---5-5-0-2-||-o---0-2---5-5-0-2-o-||
A|-----------------|-----------------||---------------------||
D|-----------------|-----------------||---------------------||x for the verses, interludes
   1 + 2 + 3 + 4 +   1 + 2 + 3 + 4 +      1 + 2 + 3 + 4 +    

Added On June 5th, 2015

SHARE

Comments

blog comments powered by Disqus

ADVERTISEMENT