Zeke Tabs

Mystery Train

1 versions

TAB

            mystery train


zeke


TRANSCRIBED BY RUDY GUZMAN


guzman_84@hotmail.com


one step down
                     
eb:---------------------|
Bb:---------------------|
Gb:---------------------|
Db:---------------------|
Ab:-2-2--9--5-5-5--7--2-|
Eb:-0-0--7--3-3-3--5--0-|

   verse
eb:---------------------|
Bb:---------------------|
Gb:---------------------|
Db:---------------------|
Ab:-2-2--9--5-5-5--7--2-|
Eb:-0-0--7--3-3-3--5--0-|

eb:------------------------------------------|
Bb:------------------------------------------|
Gb:------------------------------------------|
Db:-2-2-2-2-2-2-2-2-2-2-2--2-2--3-3--4-4-----|
Ab:-0-0-0-0-0-0-0-0-0-0-0--0-0--1-1--2-2-5-5-|
Eb:--------------------------------------3-3-|

  taking out the ride on the mistery train if you want to get
eb:---------------------|
Bb:---------------------|
Gb:---------------------|
Db:---------------------|
Ab:-2-2--9--5-5-5--7--2-|
Eb:-0-0--7--3-3-3--5--0-|

   high      get high
eb:---------------|
Bb:---------------|
Gb:---------------|
Db:-5-5---5-5-5---|
Ab:-3-3---3-3-3---|
Eb:-----0-------0-|
                        alright!
eb:---------------------|
Bb:---------------------|
Gb:---------------------|
Db:---------------------|
Ab:-2-2--9--5-5-5--7--2-|
Eb:-0-0--7--3-3-3--5--0-|

eb:---------------|
Bb:---------------|
Gb:---------------|
Db:-3-3---3-3-3---|
Ab:-1-1---1-1-1---|
Eb:-----0-------0-|

   in arizona we had no clue
   we ended up without a fucking thing to do
   and in el paso, man im telling you...
eb:---------------------|
Bb:---------------------|
Gb:---------------------|
Db:---------------------|
Ab:-2-2--9--5-5-5--7--2-|
Eb:-0-0--7--3-3-3--5--0-|

eb:------------------------------------------|
Bb:------------------------------------------|
Gb:------------------------------------------|
Db:-2-2-2-2-2-2-2-2-2-2-2--2-2--3-3--4-4-----|
Ab:-0-0-0-0-0-0-0-0-0-0-0--0-0--1-1--2-2-5-5-|
Eb:--------------------------------------3-3-|

   taking out the ride on the mistery train if you want to get 
eb:---------------------|
Bb:---------------------|
Gb:---------------------|
Db:---------------------|
Ab:-2-2--9--5-5-5--7--2-|
Eb:-0-0--7--3-3-3--5--0-|

   high        get high
eb:---------------|
Bb:---------------|
Gb:---------------|
Db:-5-5---5-5-5---|
Ab:-3-3---3-3-3---|
Eb:-----0-------0-|


solo
:------------12-------------------------------------------------------------------|
:-15bf~~~~~-----12---------------------------12-----------------------------------|
:-------------------14b-14bfp12----12-14-14b-----14p12-14b---2b(1/4)-2b(1/4)-2bp0-|
:-------------------------------14------------------------------------------------|
:---------------------------------------------------------------------------------|
:---------------------------------------------------------------------------------|

             repeat
eb:------|--------------|----------------------|
Bb:------|-14b-14-------|----------------------|
Gb:------|-14b-14p12----|-14b-14b-14b-14b~~~---|
Db:-2/---|-----------14-|----------------------|
Ab:------|--------------|----------------------|
Eb:------|--------------|----------------------|

   the gravity that use to hold you down just dont exist no more
eb:------------------------------------------|
Bb:------------------------------------------|
Gb:------------------------------------------|
Db:-2-2-2-2-2-2-2-2-2-2-2--2-2--3-3--4-4-----|
Ab:-0-0-0-0-0-0-0-0-0-0-0--0-0--1-1--2-2-5-5-|
Eb:--------------------------------------3-3-|

   taking out the ride on the mistery train if you want to get
eb:---------------------|
Bb:---------------------|
Gb:---------------------|
Db:---------------------|
Ab:-2-2--9--5-5-5--7--2-|
Eb:-0-0--7--3-3-3--5--0-|

   high       wah!!!
eb:---------------|
Bb:---------------|
Gb:---------------|
Db:-5-5---5-5-5---|
Ab:-3-3---3-3-3---|
Eb:-----0-------0-|

                 ahh!!!! 
eb:---------------------|
Bb:---------------------|
Gb:---------------------|
Db:---------------------|
Ab:-2-2--9--5-5-5--7--2-|
Eb:-0-0--7--3-3-3--5--0-|



hillo son mex

tabbed in 2002
re tabbed 06/02/17    

Added On February 7th, 2017

SHARE

Comments