Zeke Tabs

On Through The Night

1 versions

TAB

            On Through The Night


zeke


TRANSCRIBED BY RUDY GUZMAN


guzman_84@hotmail.com


   moving down the highway...
eb:------------------------------------------|
Bb:------------------------------------------|
Gb:------------------------------------------|
Db:-2-2-2-2-2-2-2--5-7--2-2-2-2-2-2-2--5-7-8-|
Ab:-0-0-0-0-0-0-0--3-5--0-0-0-0-0-0-0--3-5-6-|
Eb:------------------------------------------|

eb:------------------------------------|
Bb:------------------------------------|
Gb:------------------------------------|
Db:-2-2-2-2-2-2-2-2-2-2-2-2-2-2--------|
Ab:-0-0-0-0-0-0-0-0-0-0-0-0-0-0--3-4-5-|
Eb:------------------------------1-2-3-|

eb:------------------------------------------|
Bb:------------------------------------------|
Gb:------------------------------------------|
Db:-2-2-2-2-2-2-2--5-7--2-2-2-2-2-2-2--5-7-8-|
Ab:-0-0-0-0-0-0-0--3-5--0-0-0-0-0-0-0--3-5-6-|
Eb:------------------------------------------|

eb:---------------------------------------|
Bb:---------------------------------------|
Gb:---------------------------------------|
Db:-2-2-2-2-2-2-2-2-2-2-2-2-2-2--5-5------|
Ab:-0-0-0-0-0-0-0-0-0-0-0-0-0-0--3-3--5-3-|
Eb:-----------------------------------3-1-|

   on through the highway                on through on through the night
eb:--------------------------------------------------------------------------|
Bb:----------------------7-7p5---7-5---------------------7-7p5---7-5---------|
Gb:----------------------7-7p5---7-5h7p5-----------------7-7p5---7-5h7p5-----|
Db:----------------------------7---------7p5--5----------------7---------7p5-|
Ab:-3-3-3-3--5-5-5-5---0----------------------3---3---0----------------------|
Eb:-1-1-1-1--3-3-3-3------------------------------1--------------------------|

   on through the highway                on through on through the night
eb:---------------------------------------------------------------------|
Bb:-------------------------------------------------7-7p5---7-5h7p5-----|
Gb:-------------------------------------------------7-7p5---7-5h7p5-----|
Db:--------------------2----------------------------------7---------7p5-|
Ab:-3-3-3-3--5-5-5-5---0-----------------3---5---0----------------------|
Eb:-1-1-1-1--3-3-3-3---------------------1---3--------------------------|

      on through the night 
eb:---------------------------------------------------------|
Bb:----7-7p5-----7-7-7----7-7p5---7-5h7p5-------------------|
Gb:----7-7p5-----7-7-7----7-7p5---7-5h7p5-------------------|
Db:-----------7-----------------7---------7p5---5---5---5---|
Ab:-0-------------------0-----------------------3-5-3-5-3-5-|
Eb:-----------------------------------------------3---3---3-|

   living through the crossroads strickly to the night
eb:------------------------------------------|
Bb:------------------------------------------|
Gb:------------------------------------------|
Db:-2-2-2-2-2-2-2--5-7--2-2-2-2-2-2-2--5-7-8-|
Ab:-0-0-0-0-0-0-0--3-5--0-0-0-0-0-0-0--3-5-6-|
Eb:------------------------------------------|

eb:---------------------------------------|
Bb:---------------------------------------|
Gb:---------------------------------------|
Db:-2-2-2-2-2-2-2-2-2-2-2-2-2-2--5-5------|
Ab:-0-0-0-0-0-0-0-0-0-0-0-0-0-0--3-3--5-3-|
Eb:-----------------------------------3-1-|

   on through the highway                on through on through the night
eb:--------------------------------------------------------------------------|
Bb:----------------------7-7p5---7-5---------------------7-7p5---7-5---------|
Gb:----------------------7-7p5---7-5h7p5-----------------7-7p5---7-5h7p5-----|
Db:----------------------------7---------7p5--5----------------7---------7p5-|
Ab:-3-3-3-3--5-5-5-5---0----------------------3---3---0----------------------|
Eb:-1-1-1-1--3-3-3-3------------------------------1--------------------------|

   on through the highway                on through on through the night
eb:---------------------------------------------------------------------|
Bb:-------------------------------------------------7-7p5---7-5h7p5-----|
Gb:-------------------------------------------------7-7p5---7-5h7p5-----|
Db:--------------------2----------------------------------7---------7p5-|
Ab:-3-3-3-3--5-5-5-5---0-----------------3---5---0----------------------|
Eb:-1-1-1-1--3-3-3-3---------------------1---3--------------------------|

      on through the night 
eb:---------------------------------------------------------|
Bb:----7-7p5-----7-7-7----7-7p5---7-5h7p5-------------------|
Gb:----7-7p5-----7-7-7----7-7p5---7-5h7p5-------------------|
Db:-----------7-----------------7---------7p5---5---5---5---|
Ab:-0-------------------0-----------------------3-5-3-5-3-5-|
Eb:-----------------------------------------------3---3---3-|


   solo
eb:---------------------------------7----------7----------7----------7------|
Bb:-9-9-9-9---------------------10b---10p7--10---10p7--10---10p7--10---10p7-|
Gb:-9-9-9-9--999999999999999-7----------------------------------------------|
Db:-------------------------------------------------------------------------|
Ab:-------------------------------------------------------------------------|
Eb:-------------------------------------------------------------------------|

eb:----------------------------|
Bb:-10-7h9p7-------------------|
Gb:-----------10-7h9p7--9--9bf-|
Db:----------------------------|
Ab:----------------------------|
Eb:----------------------------|

   moving through the darkness
eb:------------------------------------------|
Bb:------------------------------------------|
Gb:------------------------------------------|
Db:-2-2-2-2-2-2-2--5-7--2-2-2-2-2-2-2--5-7-8-|
Ab:-0-0-0-0-0-0-0--3-5--0-0-0-0-0-0-0--3-5-6-|
Eb:------------------------------------------|

eb:---------------------------------------|
Bb:---------------------------------------|
Gb:---------------------------------------|
Db:-2-2-2-2-2-2-2-2-2-2-2-2-2-2--5-5------|
Ab:-0-0-0-0-0-0-0-0-0-0-0-0-0-0--3-3--5-3-|
Eb:-----------------------------------3-1-|

   on through the highway                on through on through the night
eb:--------------------------------------------------------------------------|
Bb:----------------------7-7p5---7-5---------------------7-7p5---7-5---------|
Gb:----------------------7-7p5---7-5h7p5-----------------7-7p5---7-5h7p5-----|
Db:----------------------------7---------7p5--5----------------7---------7p5-|
Ab:-3-3-3-3--5-5-5-5---0----------------------3---3---0----------------------|
Eb:-1-1-1-1--3-3-3-3------------------------------1--------------------------|

   on through the highway                on through on through the night
eb:---------------------------------------------------------------------|
Bb:-------------------------------------------------7-7p5---7-5h7p5-----|
Gb:-------------------------------------------------7-7p5---7-5h7p5-----|
Db:--------------------2----------------------------------7---------7p5-|
Ab:-3-3-3-3--5-5-5-5---0-----------------3---5---0----------------------|
Eb:-1-1-1-1--3-3-3-3---------------------1---3--------------------------|

   on through the night                   x3
eb:------------------------------------------|
Bb:----------------------7-7p5---7-5h7p5-----|
Gb:----------------------7-7p5---7-5h7p5-----|
Db:----------------------------7---------7p5-|
Ab:-3-3-3-3--5-5-5-5---0---------------------|
Eb:-1-1-1-1--3-3-3-3-------------------------|

                         on through the night
eb:---------------------------------------------------------|
Bb:----7-7p5-----7-7-7----7-7p5---7-5h7p5-------------------|
Gb:----7-7p5-----7-7-7----7-7p5---7-5h7p5-------------------|
Db:-----------7-----------------7---------7p5---5---5---5---|
Ab:-0-------------------0-----------------------3-5-3-5-3-5-|
Eb:-----------------------------------------------3---3---3-|

              on through the 
eb:--------------------------|
Bb:--------------------------|
Gb:--------------------------|
Db:-5---5---5----5---5---5---|
Ab:-3-5-3-5-3-5--3-5-3-5-3-5-|
Eb:---3---3---3----3---3---3-|

   night
eb:--------------------------|
Bb:--------------------------|
Gb:--------------------------|
Db:-2-2----------------------|
Ab:-0-0----------------------|
Eb:--------------------------|



hillo son mex

herson

hermoustrillo

21/02/17    

Added On February 22nd, 2017

SHARE

Comments

blog comments powered by Disqus

ADVERTISEMENT