Zero 7 Tabs

Give It Away

1 versions

TAB

            -------------------------------------------------------------------------------
			     GIVE IT AWAY - Zero 7
-------------------------------------------------------------------------------
Tabbed by: Cal?!
Email: whats_the_story13@hotmail.co.uk

Tuning: Standard

Ace song by electro outfit Zero 7 on the album Simple Things.
Capo: 2nd Fret

Part A x3
Part B x1
Part A x3
Part B x1
Part A x3
Part C x1


The first time you play the first part of part A play this:


|----------------------|
|-----7---4------4-----|
|-------4------4-------|
|------------4---------|
|----------------------|
|----------------------|


Part A:

|----------------------|------0--------0--------|
|---------4------4-----|----2--------2---2------|
|-------4------4-------|--2--------2-------2----|
|-----4------4---------|------------------------|
|----------------------|------------------------|
|----------------------|------------------------|


Part B:

|---------4------2-----|------------------------|
|-------5------0-------|------2--------2--------|
|-----6------1---------|----2--------2---2------|
|----------------------|--4--------4-------4----|
|----------------------|------------------------|
|----------------------|------------------------|

Part C:

|-----------4-------2--|--0---------------------|
|---------2-------2----|----2-------------------|
|-------2-------2------|------2-----------------|
|-----4----------------|------------------------|
|----------------------|------------------------|
|----------------------|------------------------|

Repeat untile end.    

Added On December 16th, 2013

SHARE

Comments

blog comments powered by Disqus

ADVERTISEMENT