Zero Assoluto Tabs

Volano I Pensieri

1 versions

TAB

            stupenda questa canzone!!spero che sia giusta!!buona suonata!!


INTRO
E|------|
B|---1--|
G|---2--|
D|------| X 8 VOLTE
A|-0----|
E|------|

VERSE
E|----------------------------------------------------|
B|------1------------3------------6-----6------6------|
G|--------2------------0------------7-----7------7----| X 4 VOLTE
D|----2-----2------0-----0------7-----7-----7------7--|
A|--0-------------------------5-----------------------|
E|---------------3------------------------------------|

Volano i pensieri
cercano orizzonti
nuovi mondi da scoprire insieme a te
Al di là del cielo
oltre le ovvietà
di una vita che ancora ci appartiene
Ed ho pensato che
come dici tu
Un amore vive superando il tempo attraverso strade che ritornano
oltre ogni logica e regole

E|--------------------------------------------------------|
B|------1------------1-------------3------3------3--------|
G|--------2------------2-------------0------0------0------|
D|----2-----2------3-----3-------0-----0------0------0----| X 2 VOLTE
A|--0------------3----------------------------------------|
E|-----------------------------3--------------------------|

E lo sento che
ogni colore è diverso
ed ha senso di te


VERSE
E|----------------------------------------------------|
B|------1------------3------------6-----6------6------|
G|--------2------------0------------7-----7------7----| X 4 VOLTE
D|----2-----2------0-----0------7-----7-----7------7--|
A|--0-------------------------5-----------------------|
E|---------------3------------------------------------|
E quanto tempo ancora
e quanto è il tempo che non basta
e quanta la paura
che ci fa lontani che nasconde ogni parola
Dietro a una speranza
dietro al mio silenzio
che nasconde un desiderio grande come il mondo
Ed ho pensato che come dici tu
un'emozione vive superando il tempo
Attraversa strade che ritornano
oltre ogni logica e regole

E|--------------------------------------------------------|
B|------1------------1-------------3------3------3--------|
G|--------2------------2-------------0------0------0------|
D|----2-----2------3-----3-------0-----0------0------0----| X 2 VOLTE
A|--0------------3----------------------------------------|
E|-----------------------------3--------------------------|


E lo sento che
ogni luogo è diverso ed ha
Senso di te

E-------------------------------------------------------|
B------1-----------1------------1--------------3--------|
G--------2-----------2------------0--------------0------| X 2 VOLTE
D----3-----3-----3-----3------2-----2--------0-----0----|
A--3-----------3------------3---------------------------|
E------------------------------------------3------------|

Ogni istante che ho vissuto e conservo dentro
Ha il tuo nome e profuma di ogni tuo gesto

E|---------------------------3--5--1--3--|
B|-----1------------1--------3--5--1--3--|
G|-------2------------2------4--5--2--4--|
D|---3-----3------3-----3----5--7--3--5--|
A|-3------------3------------5--7--3--5--|
B|---------------------------3--5--1--3--|

E mi fa ridere e sorridere

VERSE
E|----------------------------------------------------|
B|------1------------3------------6-----6------6------|
G|--------2------------0------------7-----7------7----| X 2 VOLTE
D|----2-----2------0-----0------7-----7-----7------7--|
A|--0-------------------------5-----------------------|
E|---------------3------------------------------------|

Chiudo gli occhi e penso a come è
ogni giorno che ho vissuto nella stessa casa
Ancora senza di te
Prima di un perchè e non trova mai
ancora il senso vero di una vita che non c'è

E|--------------------------------------------------------|
B|------1------------1-------------3------3------3--------|
G|--------2------------2-------------0------0------0------|
D|----2-----2------3-----3-------0-----0------0------0----| X 2 VOLTE
A|--0------------3----------------------------------------|
E|-----------------------------3--------------------------|

E lo sento che
Ogni emozione è diversa
Ed ha senso di te

E-------------------------------------------------------|
B------1-----------1------------1--------------3--------|
G--------2-----------2------------0--------------0------| X 2 VOLTE
D----3-----3-----3-----3------2-----2--------0-----0----|
A--3-----------3------------3---------------------------|
E------------------------------------------3------------|
Ogni istante che ho vissuto e conservo dentro
Ha il tuo nome e profuma di ogni tuo gesto

E|---------------------------3--5--1--3--|
B|-----1------------1--------3--5--1--3--|
G|-------2------------2------4--5--2--4--|
D|---3-----3------3-----3----5--7--3--5--|
A|-3------------3------------5--7--3--5--|
B|---------------------------3--5--1--3--|

E mi fa ridere e sorridere

END
E|----------------------------------------------------|
B|------1------------3------------6-----6------6------|
G|--------2------------0------------7-----7------7----| X 4 VOLTE
D|----2-----2------0-----0------7-----7-----7------7--|
A|--0-------------------------5-----------------------|
E|---------------3------------------------------------|

E|--------------------------------------------------------|
B|------1------------1-------------3------3------3--------|
G|--------2------------2-------------0------0------0------|
D|----2-----2------3-----3-------0-----0------0------0----| X 5 VOLTE
A|--0------------3----------------------------------------|
E|-----------------------------3--------------------------|

E|--5--|
B|--5--|
G|--5--|
D|--7--| END
A|--7--|
E|--5--|    

Added On December 16th, 2013

SHARE

Comments

blog comments powered by Disqus

ADVERTISEMENT