Zero Down Tabs

Down This Road

1 versions

TAB

            Down This Road Tab by Zero Down


This is probably my fav ever punk song, so here it is for you people.
you're gonna have to work out the order though sorry, I haven't bothered
to write it down.

Intro/Verse
|------------------------------------------------------------------ 
|------------------------------------------------------------------ 
|------------------------------------------------------------------ 
|--------------------8---8---8---8---7---7---7---7---3---3---3---3- 
|---5---5---5---5--6---6---6---6---5---5---5---5---1---1---1---1--- 
|-3---3---3---3---------------------------------------------------- 

|------------------------------ 
|------------------------------ 
|--------x-x-8--x-x-7--x-x-x-5- 
|-x-x-5--x-x-8--x-x-7--x-x-x-5- 
|-x-x-5--x-x-6--x-x-5--x-x-x-3- 
|-x-x-3------------------------ 

|---------------------------- 
|---------------------------- 
|---------------------------- 
|-x-x-3--x-x-3--x-x-3--x-x-3-
|-x-x-3--x-x-3--x-x-3--x-x-3- 
|-x-x-1--x-x-1--x-x-1--x-x-1- 

Chorus 
|---------------------------------------- 
|---------------------------------------- 
|-------------8-7-5-5--5-5-5------------- 
|-5-5--5-5-5--8-7-5-5--5-5-5--3-3--3-3-3-
|-5-5--5-5-5--6-5-3-3--3-3-3--3-3--3-3-3- 
|-3-3--3-3-3------------------1-1--1-1-1- 

Verse 2 
|------------------------------------------------------------
|------------------------------------------------------------ 
|----------------------------8--------------7--------------5- 
|-------------5--8-8-8-8-8-8-8--7-7-7-7-7-7-7--5-5-5-5-5-5-5- 
|-5-5-5-5-5-5-5--6-6-6-6-6-6-6--5-5-5-5-5-5-5--3-3-3-3-3-3-3- 
|-3-3-3-3-3-3-3---------------------------------------------- 


Bridge 
|------------------------------------------------ 
|------------------------------------------------ 
|------------------------------------------------
|-------------5-5--5-5-5------------------------- 
|-5-5--5-5-5--3-3--3-3-3--5-5--5-5-5--5-5--5-5-5- 
|-3-3--3-3-3--------------3-3--3-3-3--3-3--3-3-3-    

Added On December 16th, 2013

SHARE

Comments

blog comments powered by Disqus

ADVERTISEMENT