Zero Gravity Tabs

No More Lies

1 versions

TAB

            No More Lies Tab by Zero Gravity


hm-handmute
b-bend
p-pulloff
intro:
E|-------2--|-------22-|
B|-2-----3--|-22----33-|
G|-2--1--2--|-22-11-22-|
D|-2--2-----|-22-22----|
A|----2-----|----22----|
E|----------|----------|

Distortion:
E|---------------------|
B|---------------------|
G|---------------------|
D|---------------------|
A|-3hm-3hm-3hm---------|
E|-1hm-1hm-1hm---------|
Play this while lead guitar is playing through the whole song

Lead:
E|------------------------------------------|
B|------------------------------------------|
G|-77-4hm-hm--------------------------------|
D|-77-4hm-hm--77-5hm-hm---------------------|
A|-55-2hm-hm--77-5hm-hm---------------------|
E|------------55-3hm-hm---------------------|

Solo:
E|-15b-15p/13-----------|
B|-----------14---------|
G|----------------------|
D|----------------------|
A|----------------------|
E|----------------------|    

Added On December 16th, 2013

SHARE

Comments

blog comments powered by Disqus

ADVERTISEMENT