Zutons Tabs

Pressure Point

4 versions

TAB

            Pressure Point Tab by Zutons


Artist: Zutons
Song: Pressure Point


this is really a pretty simple song.  I dont have the solo, sorry.  Improvise, I think 
on a B major scale.

standard tuning

Verse:
-----------------|
-----------------|
-----------------|      Do this on the first "ooh ooh" each time throughout the verse
-----------------|
-----------------|
-----5h7---------|


Chorus:

Doctor oh Doctor, I'm willing to learn
5--------------5---------------------------|
7--------------7---------------------------|
7--------------7---------------------------|      Repeat with "Mother oh mother..."
7--------------7---------------------------|
5--------------5---------------------------|
--------------------------------7h5--------|


Verse

Bridge: same riff as chorus

Solo:


 D           Bm            D             Bm

-5------7--------5--------7----|
-7------7--------7--------7----|
-7------7--------7--------7----|
-7------9--------7--------9----|    x6 (this is the background for the solo)
-5------9--------5--------9----|
--------7-----------------7----|    

Added On December 16th, 2013

SHARE

Comments

blog comments powered by Disqus

VERSIONS

ADVERTISEMENT