Zz Top Tabs

Bad To The Bone Intro

1 versions

TAB

            Bad To The Bone Tab by Zz Top


e--------------------------------------|
B--------------------------------------|
G------4-----2-------------------------|
D---44----4-----4--44--44--------------|   x4
A--------------------------------------|
E--------------------------------------|


e--------------------------------------|
B--------------------------------------|
G------4-----2-------------------------|
D---44----4-----4--44--44--------------|   Let Ring
A--------------------------------------|
E--------------------------------------|    

Added On December 16th, 2013

SHARE

Comments

blog comments powered by Disqus

ADVERTISEMENT