12 Stones Tabs

Home

2 versions

TAB

            Home Tab by 12 Stones


by: colin goldsmith

d|---------------------/------------------------------------
a|---------------------/------------------------------------
f|------------5-----5--/-------------5-----5-10-10-10/12-12-
c|------3---2---2-2----/-------3---2---2-2----8--8--8-10-10-
g|----5---0------------/-----5---0------------8--8--8-10-10-
c|--0------------------/---0------------------8--8--8-10-10-
    repeat this 6 times
d|-------------/
a|-------------/
f|-12-12-12-12-/
c|-10-10-10-10-/
g|-10-10-10-10-/
c|-10-10-10-10-/

pre chorus
d|-------------------------------------------------
a|-------------------------------------------------
f|-10-10-10-10-10-10-10-10-12-12-12-12-12-12-12-12-
c|--8--8--8--8--8--8--8--8-10-10-10-10-10-10-10-10-
g|--8--8--8--8--8--8--8--8-10-10-10-10-10-10-10-10-
c|--8--8--8--8--8--8--8--8-10-10-10-10-10-10-10-10-
    repeat twice

chorus
d|---------------------------------------------------
a|---------------------------------------------------
f|------5-7-----5-7-------------5-7-----5-7---5-5-7-
c|-0----5-7-----5-7--------0----5-7-----5-7---5-5-7-
g|-0-00-3/5-000-3/5-----3--0-00-3/5-000-3/5---3-3-5-
c|-0-00-----000-------5~3--0-00-----000-------------
   repeat twice

solo
d|-----------------------------------------555--
a|-------888-666-555-----------888-666-555------
f|--7777-------------555--7777------------------
c|----------------------------------------------
g|----------------------------------------------
c|----------------------------------------------
    repeat this twice
d|-----------151515-131313-121212------------------151515-
a|--15151515----------------------131313--15151515--------
f|--------------------------------------------------------
c|--------------------------------------------------------
g|--------------------------------------------------------
c|--------------------------------------------------------

 -131313-121212-171717-
 ----------------------
 ----------------------
 ----------------------
 ----------------------
 ----------------------
   repeat twice    

Added On December 16th, 2013

SHARE

Comments

blog comments powered by Disqus

VERSIONS

ADVERTISEMENT