12 Stones Tabs

Stay

3 versions

TAB

            Stay Tab by 12 Stones


 Artist: 12 Stones
 Song: Stay
 Album: Potter's Field
 Tuning: Drop C

 Intro
 |-----------------------------------------------------------------------------------------------|
 |-----------------------------------------------------------------------------------------------|
 |-------------------------7-7-7--7-7-7-7--------------------------------------------------------|
 |----------------------5--5-5-5--5-5-5-5--------------------------------------------------------|
 |---9---9h10---7---7h9-5--5-5-5--5-5-5-5--------------------------------------------------------|
 |-9---9------7---7-----5--5-5-5--5-5-5-5--------------------------------------------------------|

 Pre Chorus
 |-----------------------------------------------------------------------------------------------|
 |-----------------------------------------------------------------------------------------------|
 |-----------------------------------------------------------------------------------------------|
 |-7--7--7-7-7-9--9--9-9-9-5--5--5-5-5-7--7--7-7-7-----------------------------------------------|
 |-7--7--7-7-7-9--9--9-9-9-5--5--5-5-5-7--7--7-7-7-----------------------------------------------|
 |-7--7--7-7-7-9--9--9-9-9-5--5--5-5-5-7--7--7-7-7-----------------------------------------------|

 Chorus (he plays it each time with different rhythm, but is easy to figure out)
 |-----------------------------------------------------------------------------------------------|
 |-----------------------------------------------------------------------------------------------|
 |-----------------------------------------------------------------------------------------------|
 |-5--5--5-7-7-9--9-9-9-9-9----------------------------------------------------------------------|
 |-5--5--5-7-7-9--9-9-9-9-9----------------------------------------------------------------------|
 |-5--5--5-7-7-9--9-9-9-9-9----------------------------------------------------------------------|

 Interlude
 |-----------------------------------------------------------------------------------------------|
 |-----------------------------------------------------------------------------------------------|
 |-----------------------------------------------------------------------------------------------|
 |-2-2-2--2-2--5-5-5--5-5--9-9-9--9-9--9-9-9--9-9------------------------------------------------|
 |-2-2-2--2-2--5-5-5--5-5--9-9-9--9-9--9-9-9--9-9------------------------------------------------|
 |-2-2-2--2-2--5-5-5--5-5--9-9-9--9-9--9-9-9--9-9------------------------------------------------|

 there's alot of overlapping lead guitar that i couldn't figure out, but hopefully this 
do.    

Added On December 16th, 2013

SHARE

Comments

blog comments powered by Disqus

VERSIONS

ADVERTISEMENT