311 Tabs

Come Original

5 versions

TAB

            Come Original Tab by 311


e--5--5-~-------------------------|
B--5--5-~-------------------------|
G--7--7-~---7-6-------------------|(x3)
D--7--7-~-------9-7-6-7-----------|
A--5--5-~----------------9-7------|
E--5--5-~-------------------------|

e--5--5-~-------------------------|
B--5--5-~-------------------------|
G--7--7-~---7-6-------------------|(x1)
D--7--7-~-------9-7-6------6-9----|
A--5--5-~--------------7-9--------|
E--5--5-~-------------------------|

e-------------------------------------|
B-------------------------------------|
G-------------------------------------|(x4)
D---55-5-5--99-9-9--77-7-7--66-6-6----|
A---55-5-5--99-9-9--77-7-7--66-6-6----|
E---33-3-3--77-7-7--55-5-5--44-4-4----|

e-------------------------------------|
B-------------------------------------|
G-------------------------------------|(x1)
D----9------7------6------4------2~---|
A----9------7------6------4------2~---|
E----7------5------4------2------0----|

e-------------------------------------|
B-------------------------------------|
G-------------------------------------|(x8)
D------22-22-2222---------------------|
A------22-22-2222---------------------|
E------00-00-0000---------------------|

e-------------------------------------|
B-------------------------------------|
G-------------------------------------|(x4)
D---55-5-5--99-9-9--77-7-7--66-6-6----|
A---55-5-5--99-9-9--77-7-7--66-6-6----|
E---33-3-3--77-7-7--55-5-5--44-4-4----|

e-------------------------------------|
B-------------------------------------|
G-------------------------------------|(x1)
D----9------7------6------4------2~---|
A----9------7------6------4------2~---|
E----7------5------4------2------0----|

e-------------------------------------|
B-------------------------------------|
G-------------------------------------|(x8)
D------22-22-2222---------------------|
A------22-22-2222---------------------|
E------00-00-0000---------------------|

e-------------------------------------|
B-------------------------------------|
G-------4/7-----------4------2--------|(x4)
D---2--------7----5------4------------|
A-------------------------------------|
E-------------------------------------|

e-------------------------------------|
B-------------------------------------|
G-------------------------------------|(x4)
D---55-5-5--99-9-9--77-7-7--66-6-6----|
A---55-5-5--99-9-9--77-7-7--66-6-6----|
E---33-3-3--77-7-7--55-5-5--44-4-4----|

Tabbed by: Taylor Evertsen
MarkTremonti90@yahoo.com
Any Questions? E-Mail Me.    

Added On December 16th, 2013

SHARE

Comments

blog comments powered by Disqus

VERSIONS

ADVERTISEMENT