Adema Tabs

Rip The Heart Out Of Me

2 versions

TAB

            Rip The Heart Out Of Me Tab by Adema


Adema
Rip the heart out of me
Unstable
Tuning: Drop D, 2 steps down-Bb-F-Bb-Eb-G-C
Tabbed by: Robert Walden

Intro/Chorus
----------------
----------------
---4------------
---2------------
-x---x-4-x-5-x-0
-x---x-4-x-5-x-0

Verses
--------------------------
--------------------------
--------------------------
---------------666---777--
-5p4-4-xx-44-4-444---555--
-5p4-4-xx-44-4-----0-----0

"you make it more eas-ay" part of chorus
------------------------
------------------------
------------------------
------------------------
---2-2---2-2---2-2---2-2
-0-2-2-0-2-2-0-2-2-0-2-2

Bridge
-------------------------------------
-------------------------------------
-------------------------------------
-44444------4444-2222------2222-44444
-22222-4444-2222-0000-4444-0000-22222
-------4444-----------4444-----------

Thats it, listen to song for timing and all that, IM me at kornfellow91 for
comments on tab, more Unstable songs to come for sure.    

Added On December 4th, 2013

SHARE

Comments

blog comments powered by Disqus

VERSIONS

ADVERTISEMENT