Adema Tabs

Stand Up

2 versions

TAB

            Stand Up Tab by Adema


Adema - Stand Up
Submitted By: Stand Alone (projectwyze13@hotmail.com)

Tuning: Drop D - D A D G B e

Intro:
e|-------------------------------------------------------------------------|
B|-------------------------------------------------------------------------|
G|------------------------------------------------------------------8------|
D|---------8p7--8p7-----------8h10p8\7-----------8p7--8p7-------------9-8--|
A|--6h8----------------6h8----------------6h8----------------6h8-----------|
D|-------------------------------------------------------------------------|

e|-------------------------------------------------------------------------|
B|-------------------------------------------------------------------------|
G|-------------------------------------------------------------------------|
D|--3---------------0---------------1--------------------------------------|
A|--3---------------0---------------1--------------------------------------|
D|--3---------------0---------------1--------------------------------------|

Verse:
e|-------------------------------------------------------------------------|
B|-------------------------------------------------------------------------|
G|-------------------------------------------------------------------------|
D|--3---------------5---------------1--------------------------------------|
A|--3---------------5---------------1--------------------------------------|
D|--3---------------5---------------1--------------------------------------|

Chorus:
e|-------------------------------------------------------------------------|
B|-------------------------------------------------------------------------|
G|-------------------------------------------------2----------4------------|
D|-3-----------0-----------1-----------5-----------2----------4------------|
A|-3-----------0-----------1-----------5-----------0----------2------------|
D|-3-----------0-----------1-----------5-----------------------------------|    

Added On December 4th, 2013

SHARE

Comments

blog comments powered by Disqus

VERSIONS

ADVERTISEMENT