Akron Family Tabs

Running Returning

1 versions

TAB

            This song is split up into two parts.  Sing the first two verses with this first riff.  
play the second riff and transition into a C strum to finish the song.

e|---------------------------------------------------------------------------|
B|---------------------------------------------------------------------------|
G|-------9-----------9----------------------------9----------9---------------|
D|----------10----------10-------10-----10-----------10---------10------10---|
A|---8-----------0------------7------7--------8-----------0----------7------7|
E|---------------------------------------------------------------------------|

Sooner, or later
Everyone will know
Within the shadows
In there light will grow
And love is on its way
It's more than I can see

Running, returning
On and on it goes
To a place
Where love begins to grow
And I am away
To where I've always been

e|------------0------------------------------------0--------------------------|
B|---------------1-------------------------------------1----------------------|
G|-----------------------------0-------------------------------------0--------|
D|---0h2--2----------2----3--------3-----0h2--2-------------2----3------3-----|
A|----------------------------------------------------------------------------|
E|----------------------------------------------------------------------------|

Transition into strumming a C chord


  C
Come walk with me in the morning light
            F
Call the curious sun
      C                              F
And before I, inside heaven in our hands
               C
And when the cold wind blows
                       F
We'll wake up on the other side
             C                                   F       C
Where the sunlight sounds like moonlight in our ears

                F
And even underground
         G
They'll hear
               F
Songs of our soul
               G
Song without tears    

Added On December 16th, 2013

SHARE

Comments

blog comments powered by Disqus

ADVERTISEMENT